Sublime

home > Sublime

What I've Got Tab

Sublime

Difficulty: BeginnerBeginner

by eschoggin12

tuner correct add songbook print version text version save to e-mail
chordsukulelecavacokeyboardtabbassdrumsharmonicsflute Guitar Pro
chords

What I've Got

	  Half of the solo! 

------------------------------------- 
------------------------------------- 
-------------10---------------------- 
-----10--12-----12--10--12------ 
--12--------------------------------- 
------------------------------------- 

------------------------------------- 
------------------------------------- 
--11---9---7---------------------- 
--12--10--9----------------------- 
------------------------------------- 
------------------------------------- 
	  

there isn't a video lesson for this song

request
Search
auto scroll beats size up size down change color hide chords drawings
tab show chords e-chords YouTube Clip e-chords hide all tabs e-chords go to top tab