Strike

O Teu Olhar

Strike

tabs Beginner beginner

by  CARTO0N

save to print version add songbook text version e-mail correct tuner
chordsukulelecavacokeyboardtabbassdrumsharmonicaflute Guitar Pro
close

there isn't a video lesson for this song

chords

O Teu Olhar

(Fábio Perez / Marcelo Mancini / André Maini / Marlos Vinicius / Cadu / Rodrigo Maciel)

	  		 


Afinação ? D a d g b e 

Ouça bem a Musica Para tirar os tempos!!! 

O  teu olhar no meu...  
      Ab           F         Eb         G
E|------------------------------------------------ 
B|------------------------------------------------ 
G|-3-3-3-3-3~------------------------------------- 
D|-3-3-3-3-3~--3-3-3-3-3~-1-1-1-1-1~-3-3-3-3-3---- 
A|-1-1-1-1-1~--3-3-3-3-3~-1-1-1-1-1~-3-3-3-3-3---- 
D|-------------3-3-3-3-3~-1-1-1-1-1~-3-3-3-3-3---- 
 pm. . . .     . . . .    . . . .    . . . .  se for daqule jeito   


Eu sou o descarado, come-quieto.... 
e|-------------------------------------- 
B|-------------------------------------- 
G|-------------------------------------- 
D|--5-5-5-5-5~-3-3-3-3-3~-1-1-1-1-1~-3~~ 
A|--5-5-5-5-5~-3-3-3-3-3~-1-1-1-1-1~-3~~ 
D|--5-5-5-5-5~-3-3-3-3-3~-1-1-1-1-1~-3~~ 
 pm . . . .    . . . .    . . . . 

INTRO ( SOLINHO )     3X| A BASE DO SOLINHO É O VERSO  
e|----------------------|  
B|----------------------| 
G|----------------------| 
D|-3-3-3-0----0-----0---| 
A|---------1-3?1-3----1~| 
D|----------------------| 

NA QUARTA VEZ! 
e|---------------------------| 
B|---------------------------| 
G|---------------------------| 
D|-3-3-3-0----0-----0--------| 
A|---------1-3?1-3----1?1?1-1| 
D|---------------------------| 

Verso 
E|------------------------------------------------ 
B|------------------------------------------------ 
G|-3-3-3-3-3-------------------------------------- 
D|-3-3-3-3-3---3-3-3-3-3-1-1-1-1-1-3-3-3-3-3------ 
A|-1-1-1-1-1---3-3-3-3-3-1-1-1-1-1-3-3-3-3-3------ 
D|-------------3-3-3-3-3-1-1-1-1-1-3-3-3-3-3------ 

e|----------------------------------------- 
B|----------------------------------------- 
G|----------------------------------------- 
D|--5-5-5-5-5--3-3-3-3-3--1-1-1-1-1?3-3-3-3 
A|--5-5-5-5-5--3-3-3-3-3--1-1-1-1-1?3-3-3-3 
D|--5-5-5-5-5--3-3-3-3-3--1-1-1-1-1?3-3-3-3 


PRE Refrão 2X 

E QUANDO TUDO... 
e|-------------------------------------- 
B|-------------------------------------- 
G|-------------------------------------- 
D|--1-1-1-5-5-5-3-3-3-3----------------- 
A|--1-1-1-5-5-5-3-3-3-3----------------- 
D|--1-1-1-5-5-5-3-3-3-3----------------- 

Refrão 

JÁ FOI SE QUE... 
E|---------------------------------------------------- 
B|---------------------------------------------------- 
G|-3-3-3-3-3------------------------------------------ 
D|-3-3-3-3-3---3-3-3-3-3-5-5-5-5--1-1-1-1-3-3-3------- 
A|-1-1-1-1-1---3-3-3-3-3-5-5-5-5--1-1-1-1-3-3-3------- 
D|-------------3-3-3-3-3-5-5-5-5--1-1-1-1-3-3-3------- 

REPETE SOLINHO 

VERSO 

PRE Refrão  

Refrão 

SÓ QUERIA QUE VOCÊ... 4X 
E|------------------------------------------------ 
B|------------------------------------------------ 
G|------------------------------------------------ 
D|--1-1-1-1-1-3-3-3-3-3--------------------------- 
A|--1-1-1-1-1-3-3-3-3-3--------------------------- 
D|--1-1-1-1-1-3-3-3-3-3--------------------------- 
 Pm . . . . . . . . . .  

O  teu olhar no meu...                                   
E|------------------------------------------------ 
B|------------------------------------------------ 
G|-3-3-3-3-3~------------------------------------- 
D|-3-3-3-3-3~--3-3-3-3-3~-1-1-1-1-1~-3-3-3-3-3---- 
A|-1-1-1-1-1~--3-3-3-3-3~-1-1-1-1-1~-3-3-3-3-3---- 
D|-------------3-3-3-3-3~-1-1-1-1-1~-3-3-3-3-3---- 
  


Eu sou o descarado, come-quieto.... 
e|-------------------------------------- 
B|-------------------------------------- 
G|-------------------------------------- 
D|--5-5-5-5-5~-3-3-3-3-3~-1-1-1-1-1~-3~~ 
A|--5-5-5-5-5~-3-3-3-3-3~-1-1-1-1-1~-3~~ 
D|--5-5-5-5-5~-3-3-3-3-3~-1-1-1-1-1~-3~~ 
 pm . . . .    . . . .    . . . . 

REPETE O Refrão 3X E FIM... 

		  

auto scroll beats size up size down change color hide chords drawings
tab show chords e-chords YouTube Clip e-chords hide all tabs e-chords go to top tab

share