Stray From The Path

Eavesdropper

Stray From The Path

tabs

by  JOV-CORREA

save to print version add songbook text version e-mail correct tuner
chordsukulelecavacokeyboardtabbassdrumsharmonicaflute Guitar Pro
close

there isn't a video lesson for this song

chords

Eavesdropper

	  		 
Tuning:CGCFAD 

D|---------------------------------------------------------------------------| 
A|---------------------------------------------------------------------------| 
F|---------------------------------------------------------------------------| 
C|---------------------------------------------------------------------------| 
G|-----1-----4-----5--------------4-------1---4---3---x-x--x-x--x---x-x-x-x--| 
C|-----1-----4-------6--0-----4-5---5-0---1---4---3---x-x--x-x--x---x-x-x-x--| 

D|---------------------------------------------------------------------------| 
A|---------------------------------------------------------------------------| 
F|---------------------------------------------------------------------------| 
C|---------------------------------------------------------------------------| 
G|-----1-----4-----5--------------4-------1---4---3--1-----1-----1-----------| 
C|-----1-----4-------6--0-----4-5---5-0---1---4---3----2-2---2-2---2-2--5-5-5| 

D|---------------------------------------------------------------------------| 
A|---------------------------------------------------------------------------| 
F|---------------------------------------------------------------------------| 
C|---------------------------------------------------------------------------| 
G|---------------------------------------------------------------------------| 
C|--0----0----0-0-------0----0----0-0-0--1---0---4---0-0--3-1-0-0--3---------| 

D|---------------------------------------------------------------------------| 
A|---------------------------------------------------------------------------| 
F|---------------------------------------------------------------------------| 
C|---------------------------------------------------------------------------| 
G|---------------------------------------------------------------1-----------| 
C|--0----0----0-0-------0----0----0-0-0--1---0---4---0-0--1-3-0----2-2-2-----| 
                   
        Repeat First and Second Riff but on the Transition Play This 

D|---------------------------------------------------------------------------| 
A|---------------------------------------------------------------------------| 
F|---------------------------------------------------------------------------| 
C|---------------------------------------------------------------------------| 
G|----------------------------------------------------------------x-x-x-x----| 
C|--0----0----0-0-------0----0----0-0-0--1---0---4---0-0--1-3-0---x-x-x-x----| 

                            Strum The Next Part 

D|---------------------------------------------------------------------------| 
A|---------------------------------------------------------------------------| 
F|----10----11------6------10-----11----15----14----11--6---14---15---18-----| 
C|---------------------------------------------------------------------------| 
G|----8-----9-------4------8------9-----13----12----9---4---12---13---16-----| 
C|---------------------------------------------------------------------------| 

D|---------------------------------------------------------------------------| 
A|---------------------------------------------------------------------------| 
F|---14--14-------14-14-14-14-----14-14-14-14--------------------------------| 
C|-----------x-x--------------x-x-------------x-x----------------------------| 
G|---12--12--x-x--12-12-12-12-x-x-12-12-12-12-x-x----------------------------| 
C|-----------x-x--------------x-x-------------x-x----------------------------| 

D|---------------------------------------------------------------------------| 
A|---------------------------------------------------------------------------| 
F|---13--13-------13-13-13-13-----13-13-13-13--------------------------------| 
C|-----------x-x--------------x-x-------------x-x----------------------------| 
G|---11--11--x-x--11-11-11-11-x-x-11-11-11-11-x-x----------------------------| 
C|-----------x-x--------------x-x-------------x-x----------------------------| 

D|---------------------------------------------------------------------------| 
A|---------------------------------------------------------------------------| 
F|--13-13-13-13-13-13-13-13-13-13-13-13-13-13-13-13--------------------------| 
C|---------------------------------------------------------------------------| 
G|--11-11-11-11-11-11-11-11-11-11-11-11-11-11-11-11--------------------------| 
C|---------------------------------------------------------------------------| 

D|---------------------------------------------------------------------------| 
A|---------------------------------------------------------------------------| 
F|---------------------------------------------------------------------------| 
C|---------------------------------------------------------------------------|  x3 
G|---------------------------------------------------------------------------| 
C|--0--0------0-0-0-0----0-0-0-0---------------------------------------------| 

D|---------------------------------------------------------------------------| 
A|---------------------------------------------------------------------------| 
F|---------14-14-14-14-14-14-14-14-14-14-14-14-14-14-14-14-------------------| 
C|---------------------------------------------------------------------------| 
G|---x--x--13-13-13-13-13-13-13-13-13-13-13-13-13-13-13-13-------------------| 
C|---x--x--------------------------------------------------------------------| 


That's All You Need to Know to Play The Song. 
Enjoy 
************************************ 

| /   slide up 
| \   slide down 
| h   hammer-on 
| p   pull-off 
| ~   vibrato 
| +   harmonic 
| x   Mute note 
| b   Bend 
| pb  Pre-bend 
| br  Bend release 
| pbr Pre-bend release 
| brb Bend release bend 

************************************ 
		  

See also:

tabs John Mayer - Neon tabs Van Halen - Pretty Woman tabs Simon & Garfunkel - Sounds of silence tabs The Strokes - Juicebox tabs Rage Against The Machine - Killing In The Name tabs Aerosmith - Dream On
e-chords

Other versions:

tabs Stray From The Path - Eavesdropper
auto scroll beats size up size down change color hide chords drawings
tab show chords e-chords YouTube Clip e-chords hide all tabs e-chords go to top tab

share