Stray From The Path

Black Friday

Stray From The Path

tabs

by  TERR_SCHMITZ

save to print version add songbook text version e-mail correct tuner
chordsukulelecavacokeyboardtabbassdrumsharmonicaflute Guitar Pro
close

there isn't a video lesson for this song

chords

Black Friday

	  		

Tuning:CGCFAD 
I threw this together quickly, it's definitely not perfect but you can jam the song with it. 
For the Chorus you push the back of the neck instead of bending the note 

   Intro 
D|---------------------------------------------------------------------------| 
A|--------------------h9---------------------------h9------------------------| 
F|--T12--------------------------T12-----------------------------------------| 
C|---------------h7---------------------------h7-----------------------------|  X4 
G|--------T11--------------------------T11-----------------------------------| 
C|---------------------------------------------------------------------------| 
    Verse 
D|---------------------------------------------------------------------------| 
A|---------------------------------------------------------------------------| 
F|---------------------------------------------------------------------------| 
C|---------------------------------------------------------------------------| 
G|---0--2--2--2--3--2--2--2--0--2--2--2--0---2----2-------2--0--2--2--0--2--2| 
C|---0--2--2--2--3--2--2--2--0--2--2--2--0---2----2-------2--0--2--2--0--2--2| 
    Chorus 
D|-----------------------------------------------b0--------------------------| 
A|-----------------------------------------------b0--------------------------| 
F|-----------------------------------------------b0--------------------------| 
C|---------------------------------------------------------------------------| 
G|---0--2--2------3--2--2-----0--2--2--0--2-------------2--0--2--2--0--2---2-| 
C|---0--2--2------3--2--2-----0--2--2--0--2-------------2--0--2--2--0--2---2-| 

D|---------------------------------------------------------------------------| 
A|---------------------------------------------------------------------------| 
F|---------------------------------------------------------------------------| 
C|---------------------------------------------------------------------------| 
G|---2--x--2--x--2--x--2--3--b2--------2--2--2--2--2--2--0--2--2--2--2-------| 
C|---2--x--2--x--2--x--2--3--b2--------2--2--2--2--2--2--0--2--2--2--2-------| 
     Bridge 
D|---------------------------------------------------------------------------| 
A|---------------------------------------------------------------------------| 
F|---------------------------------------------------------------------------| 
C|---------------------------------------------------------------------------| 
G|---2--x--2--x--2--x--2--3--------------------------------------------------| 
C|---2--x--2--x--2--x--2--3--------------------------------------------------| 

D|---------------------------------------------------------------------------| 
A|--------------------h9---------------------------h9------------------------| 
F|--T12--------------------------T12-----------------------------------------| 
C|---------------h7---------------------------h7-----------------------------|  X2 
G|--------T11--------------------------T11-----------------------------------| 
C|---------------------------------------------------------------------------| 
     Verse 
D|---------------------------------------------------------------------------| 
A|---------------------------------------------------------------------------| 
F|---------------------------------------------------------------------------| 
C|---------------------------------------------------------------------------| 
G|---0--2--2--2--3--2--2--2--0--2--2--2--0---2----2-------2--0--2--2--0--2--2| 
C|---0--2--2--2--3--2--2--2--0--2--2--2--0---2----2-------2--0--2--2--0--2--2| 
     Chorus 
D|-----------------------------------------------b0--------------------------| 
A|-----------------------------------------------b0--------------------------| 
F|-----------------------------------------------b0--------------------------| 
C|---------------------------------------------------------------------------| 
G|---0--2--2------3--2--2-----0--2--2--0--2-------------2--0--2--2--0--2---2-| 
C|---0--2--2------3--2--2-----0--2--2--0--2-------------2--0--2--2--0--2---2-| 

D|---------------------------------------------------------------------------| 
A|---------------------------------------------------------------------------| 
F|---------------------------------------------------------------------------| 
C|---------------------------------------------------------------------------| 
G|---2--x--2--x--2--x--2--3--b2--------2--2--2--2--2--2--0--2--2--2--2-------| 
C|---2--x--2--x--2--x--2--3--b2--------2--2--2--2--2--2--0--2--2--2--2-------| 

D|-----------------------------------------------b0--------------------------| 
A|-----------------------------------------------b0--------------------------| 
F|-----------------------------------------------b0--------------------------| 
C|---------------------------------------------------------------------------| 
G|---0--2--2------3--2--2-----0--2--2--0--2-------------2--0--2--2--0--2---2-| 
C|---0--2--2------3--2--2-----0--2--2--0--2-------------2--0--2--2--0--2---2-| 

D|---------------------------------------------------------------------------| 
A|---------------------------------------------------------------------------| 
F|---------------------------------------------------------------------------| 
C|---------------------------------------------------------------------------| 
G|---2--x--2--x--2--x--2--3--------2--------2--------------------------------| 
C|---2--x--2--x--2--x--2--3--------2--------2--------------------------------| 
     Breakdown 1 
D|---------------------------------------------------------------------------| 
A|------------------b3-b3-b3----------------------b4-b4-b4-------------------| 
F|------------------b3-b3-b3----------------------b4-b4-b4-------------------| 
C|---------------------------------------------------------------------------|  
G|---0--2-----2---------------------0--2-----2-------------------------------| 
C|---0--2-----2---------------------0--2-----2-------------------------------| 
                                                                               X4 
D|---------------------------------------------------------------------------| 
A|------------------b3-b3-b3-------------------------------------------------| 
F|------------------b3-b3-b3----------------12--12-------12------------------| 
C|---------------------------------------------------------------------------| 
G|--0--2------2--------------------0--2-------------11--------11-------------| 
C|--0--2------2--------------------0--2--------------------------------------| 
     Bridge 2 
D|---------------------------------------------------------------------------| 
A|---------------------------------------------------------------------------| 
F|---12-12--------------12-12-------------12-12------------------------------| 
C|---------------------------------------------------------------------------| X4 
G|---------11-11-11-11--------11-11-11-11-------11-11------------------------| 
C|---------------------------------------------------------------------------| 
     verse 2 
D|---------------------------------------------------------------------------| 
A|---------------------------------------------------------------------------| 
F|----------------12-12--------12-12-----------------------------------------| 
C|---------------------------------------------------------------------------| X4 
G|---5---2---0----------11-11---------11-11----------------------------------| 
C|---5---2---0---------------------------------------------------------------| 
     Bridge 2 
D|---------------------------------------------------------------------------| 
A|---------------------------------------------------------------------------| 
F|---12-12--------------12-12-------------12-12------------------------------| 
C|---------------------------------------------------------------------------| X4 
G|---------11-11-11-11--------11-11-11-11-------11-11------------------------| 
C|---------------------------------------------------------------------------| 
     verse 2 
D|---------------------------------------------------------------------------| 
A|---------------------------------------------------------------------------| 
F|----------------12-12--------12-12-----------------------------------------| 
C|---------------------------------------------------------------------------| X4 
G|---5---2---0----------11-11---------11-11----------------------------------| 
C|---5---2---0---------------------------------------------------------------| 
     Bridge 2 
D|---------------------------------------------------------------------------| 
A|---------------------------------------------------------------------------| 
F|---12-12--------------12-12-------------12-12------------------------------| 
C|---------------------------------------------------------------------------| X4 
G|---------11-11-11-11--------11-11-11-11-------11-11------------------------| 
C|---------------------------------------------------------------------------| 

D|---------------------------------------------------------------------------| 
A|---------------------------------------------------------------------------| 
F|---------------------------------------------------------------------------| 
C|---------------------------------------------------------------------------| 
G|--5--2--0--2-----5---2-----------------------------------------------------| 
C|--5--2--0--2-----5---2-----------------------------------------------------| 
     
    Same pattern until the end 



************************************ 
| T   tap 
| /   slide up 
| \   slide down 
| h   hammer-on 
| p   pull-off 
| ~   vibrato 
| +   harmonic 
| x   Mute note 
| b   Bend 
| pb  Pre-bend 
| br  Bend release 
| pbr Pre-bend release 
| brb Bend release bend 

************************************ 
		  

See also:

tabs John Mayer - Neon tabs Van Halen - Pretty Woman tabs Simon & Garfunkel - Sounds of silence tabs The Strokes - Juicebox tabs Rage Against The Machine - Killing In The Name tabs Aerosmith - Dream On
e-chords

Other versions:

tabs Grinspoon - Black Friday tabs Stray From The Path - Black Friday tabs Steely Dan - Black Friday
auto scroll beats size up size down change color hide chords drawings
tab show chords e-chords YouTube Clip e-chords hide all tabs e-chords go to top tab

share