Stray Cats

Double Talking Baby

Stray Cats

tabs

by  EDSOOLIVEIRA

save to print version add songbook text version e-mail correct tuner
chordsukulelecavacokeyboardtabbassdrumsharmonicaflute Guitar Pro
close

there isn't a video lesson for this song

chords

Double Talking Baby

	  		


Gtr I (E A D G B E) - 'Brian Setzer - Electric Guitar' 


   Intro & Interlude 
    Q=214(8=s8) 
    N.C. 
   4/4 
    Gtr I (El. Gtr.) 
    E E E E E E Q     E  E E  E  E E  Q 
||--------------5--|-----------------12\--| 
||o-------------5--|-----------------12\--| 
||-----------------|----------------------| 
||--7-7---7-7------|-12-12---12-12--------| 
||o----------------|----------------------| 
||-----------------|----------------------| 


                            F7E7 
  PM 
  E a   +Q.   E E E E   E E E E +H 
|---7b8-(7)---7-5-----|----------------|| 
|---7b8-(7)-------7-5-|----------------|| 
|-7-------------------|-7-5-8-7-(7)----|| 
|---------------------|-----7-6-(6)----|| 
|---------------------|-----8-7-(7)----|| 
|---------------------|----------------|| 


 1st, 3rd & 5th Verses 
  N.C.                                       Asus2/B 
  PM------------------------------------| 
  E E E E E E E E   E E E E E E E E   E E Q  E E Q 
|-----------------|-----------------|--------5-5----| 
|-----------------|-----------------|--------5-5----| 
|-----------------|-2-2-------------|--------4-4----| 
|---------2-2-4-4-|-----4-4-2-2-----|---------------| 
|-0-0-4-4---------|-------------4-0-|-0-0-----------| 
|-----------------|-----------------|---------------| 


                    N.C. 
  E E E E +Q   Q     E  E  E  E  +E  E E E 
|-5-5---5-(5)-----|------------------------| 
|-5-5---5-(5)-----|----10----10-(10)-------| 
|-4-4---4-(4)-----|------------------9s8s9-| 
|-----------------|-10----10---------------| 
|-----------------|--9---------------------| 
|-----------------|------------------------| 


                              Asus2/B 
  E  Q   E  +E  E  Q     H    E E Q 
|----------------------|------5-5-----| 
|-------10-(10)--------|------5-5-----| 
|---------------9------|------4-4-----| 
|---10------------10/--|--------------| 
|-9--------------------|--------------| 
|----------------------|--------------| 


                    E7         D#7  D7         D#7  E7         D#7 
  E E E E +Q   Q    E E Q  E E Q    E E Q  E E Q    E E Q  E E Q 
|-5-5---5-(5)--x--|---------------|---------------|----------------| 
|-5-5---5-(5)--x--|-5--------5-4--|-3--------3-4--|-5--------5-4---| 
|-4-4---4-(4)--x--|-7--------7-6--|-5--------5-6--|-7--------7-6---| 
|-----------------|-6--------6-5--|-4--------4-5--|-6--------6-5---| 
|-----------------|-7--------7-6--|-5--------5-6--|-7--------7-6---| 
|-----------------|---------------|---------------|----------------| 


  D7       N.C.       A5 
  E E Q  E E Q        E E Q  H      W 
|-------------------|-------------|----------|| 
|-3-----------------|-------------|----------|| 
|-5-----------------|-2-----------|----------|| 
|-4-----------------|-2-----------|----------|| 
|-5--------5-3b3.5--|-0-----------|----------|| 
|-------------------|-------------|----------|| 


 2nd, 4th & 6th Verses 
  N.C. 
  PM------------------------------| 
  E E E E E E E E   E E E E E E E E 
|-----------------|-------------------| 
|-----------------|-------------------| 
|-----------------|-2-2---------------| 
|---------2-2-4-4-|-----4-4-2-2---2---| 
|-0-0-4-4---------|-------------4-----| 
|-----------------|-------------------| 


                           Asus2/B                    Am/F#               G#m/F 
  PM------------------| 
  E E E E E E E E   E E Q  E E Q    E E E E +Q   Q    Q   E  E  +E   E  E E 
|-----------------|--------5-5----|-5-5---5-(5)-----|-------------------------| 
|-----------------|--------5-5----|-5-5---5-(5)-----|-------10-(10)-10-10s9s==| 
|-----------------|--------4-4----|-4-4---4-(4)-----|--------9--(9)--9--9s8s==| 
|---------2-2-4-4-|---------------|-----------------|----10-10-(10)-10-10s9s==| 
|-0-0-4-4---------|-0-0-----------|-----------------|-9------9--(9)--9--9s8s==| 
|-----------------|---------------|-----------------|-------------------------| 


  Am/F#                         Asus2/B                     E7         D#7 
   E  Q   E  +E  E  E  E   H    E E Q    E E E E +E  E Q    E E Q  E E Q 
|------------------------|------5-5----|-5-5---5-(5)-x-x--|----------------| 
|-10-----10-(10)---------|------5-5----|-5-5---5-(5)-x-x--|-5--------5-4---| 
|--9-------------9--9--9-|------4-4----|-4-4---4-(4)-x-x--|-7--------7-6---| 
|-10-10------------10-10-|-------------|------------------|-6--------6-5---| 
|--9----------------9--9-|-------------|------------------|-7--------7-6---| 
|------------------------|-------------|------------------|----------------| 


                                                    To Coda 
  D7         D#7  E7         D#7  D7       N.C.   A5 
  E E Q  E E Q    E E Q  E E Q    E E Q  E E Q    E E Q  H 
|---------------|---------------|---------------|--------------| 
|-3--------3-4--|-5--------5-4--|-3-------------|--------------| 
|-5--------5-6--|-7--------7-6--|-5-------------|-2------------| 
|-4--------4-5--|-6--------6-5--|-4-------------|-2------------| 
|-5--------5-6--|-7--------7-6--|-5--------3-3--|-0------------| 
|---------------|---------------|---------------|--------------| 


                   Guitar Solo 1 
  1. 
  N.C. 
           |-3-| 
  H    E E E E E    Q  E E +Q   E E      +E   E E E E E    +Q 
|----------------||-5--x-5-(5)----7b9==|=(7)r-7-5---------------| 
|------------5-7-||-------------5------|----------7-5-----------| 
|--------5s6-----||--------------------|--------------7b9==(7)--| 
|----------------||--------------------|------------------------| 
|----------------||--------------------|------------------------| 
|----------------||--------------------|------------------------| 


                                     ~~~   ~ 
  +E   E E E E E    +E  E   E E E E +Q   E E 
|-------------------------|-------------------| 
|------5------------------|-------------------| 
|-(7)r---7-5-7-7pb9r(7)-5-|-7-5---5-(5)----5--| 
|-------------------------|-----7--------7----| 
|-------------------------|-------------------| 
|-------------------------|-------------------| 


   ~~~ 
  +Q   E   +E  E E   +E  E   E E   E E E   E E E 
|--------------------------|-----------------5-----| 
|--------------5-----------|-5-------5-------------| 
|-(5)--7b9-(7)---7b9-(7)---|---7b9-----7b9-----7b9-| 
|--------------------------|-----------------------| 
|--------------------------|-----------------------| 
|--------------------------|-----------------------| 


  +E  E E E    +E  E E E   E E E E E E E E 
|-----5------------------|-------------------| 
|------------------------|-------------------| 
|-(7)---7-7pb9r(7)-5-7-5-|-------------------| 
|------------------------|-7-5---7p5---5-----| 
|------------------------|-----7-----7---6s==| 
|------------------------|-------------------| 


          |-3-| 
  E E E E E E E E E   S S S S E E Q.   E   E E E   E E E E E   E E E E E E E E 
|-------------------|------------------5-|-5-5-------5-5-----|-5-5---5-5-5-5---| 
|-------------------|---------5-8p5------|-----7b9-------7---|-----7---5-5-5---| 
|-------6-7-6-------|-----7-8------------|-------------------|---------5-5-5---| 
|---6-7-------9-8-7s|=6------------------|-------------------|-----------------| 
|-7-----------------|--------------------|-------------------|-----------------| 
|-------------------|--------------------|-------------------|-----------------| 


  H.       E E      +E   E E E E E    +Q 
|-7b9------0-7b9==|=(7)r-7-5---------------| 
|-----------------|----------7-5-----------| 
|-----------------|--------------7b9==(7)--| 
|-----------------|------------------------| 
|-----------------|------------------------| 
|-----------------|------------------------| 


  +E   E E E +E  E E   E   E   E E   E E   E E E 
|------------------------|------------------------| 
|------5-----------------|------------------------| 
|-(7)r---7-0-(0)---------|-------------------0----| 
|----------------2-----2-|-----2-----2-----2---7--| 
|------------------3b4---|-3b4---3b4---3b4--------| 
|------------------------|------------------------| 


  +Q   E E E E E E      E E E    E +E  E   E  E 
|---------------------|-------------------------| 
|---------------------|----------------------10-| 
|------------7--------|-7--------7-----7-/11----| 
|-(7)--------7--------|-7--------7-(7)-7--------| 
|--------9-------9b10-|-----9b10----------------| 
|---------------------|-------------------------| 


   E E  E E  Q  E   E    +E    Q   E  +E   E  Q 
|---------------------|----------------------------| 
|-10---10---10----/10-|-(10)-/10--10-(10)-10-10\---| 
|-11---11---11----/11-|-(11)-/11--11-(11)-11-11\---| 
|---------------------|----------------------------| 
|---------------------|----------------------------| 
|---------------------|----------------------------| 


  E E E E +E  E E E   E  E E  E  E  E E E 
|-------------------|--------10-10-10---0-| 
|-------5-(5)-5-5-x-|--------10-10-10-----| 
|-------7-(7)-7-7-x-|----9-9--------------| 
|---x---6-(6)-6-6-x-|---10----------------| 
|-----7-------------|-9-------------------| 
|-------------------|---------------------| 


  E E E E a E E E E   E E E E +Q    E E 
|-------------------|-------5-(5)\-------|| 
|-------------------|-----5-5-(5)\------o|| 
|-------------------|---6---6-(6)\-------|| 
|-----6---5s6-7-6---|-7------------------|| 
|-7---------------7-|---------------x-x-o|| 
|-------------------|--------------------|| 


                   Guitar Solo 2 
  2. 
  N.C. 
                     |--3--|  |--3--|  |--3--|  |--3--| 
  H    E   Q   E     E  E  E  E  E  E  E  E  E  E  E  E 
|----------------||-------------------------------------| 
|-------------10-||-12p10----13p10----12p10----10-10-10-| 
|--------/11-----||-------11-------11-------11-11-11-11-| 
|----------------||-------------------------------------| 
|----------------||-------------------------------------| 
|----------------||-------------------------------------| 


   |--3--|  |--3--|  |--3--|  |--3--| 
   E  E  E  E  E  E  E  E  E  E  E  E 
|-12-------14-------12----------------| 
|----10-------10-------10----12p10----| 
|-------11-------11-------11-------11-| 
|-------------------------------------| 
|-------------------------------------| 
|-------------------------------------| 


   |--3--|                     |---3----| 
   E  E  E  Q       +H         Q  Q     Q     E  Q. 
|---------------------------|---------------------------| 
|-14p10----12b14===(12)r----|-12-12b14-12b14-12-12b14---| 
|-------11------------------|---------------------------| 
|---------------------------|---------------------------| 
|---------------------------|---------------------------| 
|---------------------------|---------------------------| 


      |--3--|     |--3--|       |--3--| 
  E E E  E  E  Q  E  E  E    Q  E  E  E  E  E  E  E 
|-------------------------|-------------------------| 
|----------10-10-------10-|-10-------10-10-10----10-| 
|---7-9s11--------9s11----|-----9s11----------11----| 
|-------------------------|-------------------------| 
|-------------------------|-------------------------| 
|-------------------------|-------------------------| 


   +E   E  E  E E E E E   E E E E E E Q 
|---------------------5-|-8-5-7-5---5----| 
|-(10)-10---------5-7---|---------7---7--| 
|---------11\-5h6-------|----------------| 
|-----------------------|----------------| 
|-----------------------|----------------| 
|-----------------------|----------------| 


  E E E E E  E E E    E E  E  E  E  E  E  E 
|------------------|-----------------------------| 
|------------------|-----------------------------| 
|-----9-----10-----|-11------12-------13-13b14===| 
|------------------|-----------------------------| 
|-6s7---7s8----8s9-|----9s10----10s11------------| 
|------------------|-----------------------------| 


                                                                 Asus2/B 
    |----3-----|     |-----3-----| 
   +Q    Q     Q     Q     Q     Q       E     E     Q      Q  E   S  S 
|-------------------------------------|--------------------------/17-17-| 
|-------------------------------------|--------------------------/17-17-| 
|-(13)r-13b14-13b14-13b14-13b14-13b14-|-13b14-13b14-13b14\-------/16-16-| 
|-------------------------------------|---------------------------------| 
|-------------------------------------|---------------------------------| 
|-------------------------------------|---------------------------------| 


   E E  E E Q.     E    +E   E  E  E E Q    E 
|-17---17---5----/17-|-(17)-17-17-17---5--/17-| 
|-17---17---5----/17-|-(17)-17-17-17---5--/17-| 
|-16---16---4----/16-|-(16)-16-16-16---4--/16-| 
|--------------------|------------------------| 
|--------------------|------------------------| 
|--------------------|------------------------| 


                                G#sus2/A# 
             |--3--|  |--3--|    |-3-| |-3-| |-3-| |-3-| 
   Q   Q     E  E  E  E  E  E    E E E E E E E E E E E E 
|-17\--5/--/17-17-17-17-17-17-|-16-x-x-x-x-x-x-x-x-x-x-x-| 
|-17\--5/--/17-17-17-17-17-17-|-16-x-x-x-x-x-x-x-x-x-x-x-| 
|-16\--4/--/16-16-16-16-16-16-|-15-x-x-x-x-x-x-x-x-x-x-x-| 
|-----------------------------|--------------------------| 
|-----------------------------|--------------------------| 
|-----------------------------|--------------------------| 


  N.C. 
                                                  PM--|    PM--| 
         |-3-| |-3-|   |-3-| |-3-| |-3-|          |-3-|    |-3-| 
  Q  E E E E E E E E   E E E E E E E E E E E   Q  E E E Q  E E E 
|--------------------|-----------------------|--------------------| 
|------------5-----5-|-----5-----5-----5-----|--------------------| 
|-5--7---5h7---5h7---|-5h7---5h7---5h7---7---|-5--------5---------| 
|--------------------|-----------------------|----7-5------7-5----| 
|--------------------|-----------------------|--------7--------7--| 
|--------------------|-----------------------|--------------------| 


     |-3-| 
  Q  E E E E E E E    E E  E     E E  E E E 
|------------------|------10b12-10-8--------| 
|----------------8-|-10-8------------10-8---| 
|-5--------5-7s9---|----------------------7s| 
|----7-5-----------|------------------------| 
|--------7---------|------------------------| 
|------------------|------------------------| 


  E E E E +E  E E  E    E  E  E     E  E     Q   E 
|--------------------|---------------------------------| 
|---8-8-8-(8)-8---10-|-10-10-------10-------10---------| 
|-9-------------9----|-------12b14----12b14-----12b14==| 
|--------------------|---------------------------------| 
|--------------------|---------------------------------| 
|--------------------|---------------------------------| 


   E   E E  E  E  Q      E    E     +E   Q   Q      E  E 
|--------------------------|--------------------------------| 
|-----10---10-10--------10-|------------10--10b11--10-------| 
|-12r----x-------12b14-----|-12b14-(12)---------------12b14-| 
|--------------------------|--------------------------------| 
|--------------------------|--------------------------------| 
|--------------------------|--------------------------------| 


   +E   E  Q      E  E      +E    E    E    E  E  E    E  E  E    E 
|-----------------------------------|--------------------------------| 
|------10--------10--------------10-|---------10---------10----------| 
|-(12)----12b14-----12b14==(12)r----|-12b14------12b14------12b14----| 
|-----------------------------------|--------------------------------| 
|-----------------------------------|--------------------------------| 
|-----------------------------------|--------------------------------| 


                                  |-3-|        |-3-| 
   E  E    E  E  E    E Q     E E E E E E    E E E E 
|-----------------------0--|----5-----5-8b10-------5-| 
|-10---------10------------|-/7---5h7----------5h7---| 
|----12b14------12b14------|-------------------------| 
|--------------------------|-------------------------| 
|--------------------------|-------------------------| 
|--------------------------|-------------------------| 


         |-3-| 
  E    E E E E E    E E E     +E  E E E E E    +E  E 
|-8b10-------5-8b10---5-7b8-|-(7)-7-5----------------| 
|--------5h7------------7b8-|-(7)-----7-5------------| 
|---------------------------|-------------7pb9r(7)-5-| 
|---------------------------|------------------------| 
|---------------------------|------------------------| 
|---------------------------|------------------------| 


                           |-3-| 
  E E E E E Q  E   E E E E E E E E S S   +E  S S E E +E  E  Q 
|----------------|---------------------|-----------------------| 
|----------------|---------------------|-----5-5-5-5-(5)-5-----| 
|----------------|-----------------4---|-----------------------| 
|-7-5------------|---------2---4s6---6-|-(6)---------------/7--| 
|-----7s6-5-3--x-|-------2-------------|-----------------------| 
|----------------|-0-2s4---------------|-----------------------| 


                                                       Outro 
                            D.C. al Coda & 
                                            N.C.        N.C. 
         |-3-| 
  E E Q  E E E E E   E E E E +Q     E E     W           E E E E Q  Q 
|------------------|-------5-(5)\-----5--||----------||------------5---| 
|------------------|-----5-5-(5)\-----5--||----------||------------5---| 
|--------5h6-------|---6---6-(6)\--/6----||----------||----------------| 
|-7---7------7-4---|-7-------------------||----------||-7-7---7-7------| 
|----------------7-|---------------------||----------||----------------| 
|------------------|---------------------||----------||----------------| 


   E  E E  E  Q   Q     E Q.    E E E E 
|----------------10\--|---7b8---7-5-----| 
|----------------10\--|---7b8-------7---| 
|---------------------|---------------5h| 
|-12-12---12-12-------|-----------------| 
|---------------------|-----------------| 
|---------------------|-----------------| 


             B7sus4/F# 
             \1/ 
  E E E E Q  Q      +W           +W 
|-------5----5----|-(5)--------|-(5)----*| 
|---5-7-5----5----|-(5)--------|-(5)----*| 
|-6----------4----|-(4)--------|-(4)----*| 
|------------4----|-(4)--------|-(4)----*| 
|-----------------|------------|--------*| 
|-----------------|------------|--------*| 


Duration Legend 
--------------- 
W - whole; H - half; Q - quarter; E - 8th; S - 16th; T - 32nd; X - 64th; a - acciaccatura 
+ - note tied to previous; . - note dotted; .. - note double dotted 
Uncapitalized letters represent notes that are staccato (1/2 duration) 
Irregular groupings are notated above the duration line 
Duration letters will always appear directly above the note/fret number it represents the 
duration for.  Duration letters with no fret number below them represent rests.  Multi- 
bar rests are notated in the form Wxn, where n is the number of bars to rest for.  Low 
melody durations appear below the staff 

Tablature Legend 
---------------- 
 h   - hammer-on 
 p   - pull-off 
 b   - bend 
 pb  - pre-bend 
 r   - bend release (if no number after the r, then release immediately) 
 /\  - slide into or out of (from/to "nowhere") 
 s   - legato slide 
 S   - shift slide 
  - natural harmonic 
n  - artificial harmonic 
n(n) - tapped harmonic 
 ~   - vibrato 
 tr  - trill 
 T   - tap 
 TP  - trem. picking 
 PM  - palm muting 
\n/  - tremolo bar dip; n = amount to dip 
 \n  - tremolo bar down 
 n/  - tremolo bar up 
/n\  - tremolo bar inverted dip 
 =   - hold bend; also acts as connecting device for hammers/pulls 
 <>  - volume swell (louder/softer) 
 x   - on rhythm slash represents muted slash 
 o   - on rhythm slash represents single note slash 

Misc Legend 
----------- 
 |  - bar 
||  - double bar 
||o - repeat start 
o|| - repeat end 
*|  - double bar (ending) 
 :  - bar (freetime) 
 $  - Segno 
 &  - Coda 
Tempo markers -  = BPM(8/16=s8/s16), where s8 = swing 8ths, s16 = swing 16ths 
		  

See also:

tabs Soundtracks - Forrest Gump - Theme tabs Jesus Christ Superstar - Overture tabs Dick dale - Miserlou 2 tabs Poison - Every rose has its thorn tabs Soundtracks - Ghostbusters Theme tabs John Williams - Star wars theme
e-chords

Other versions:

tabs Stray Cats - Double Talking Baby
auto scroll beats size up size down change color hide chords drawings
tab show chords e-chords YouTube Clip e-chords hide all tabs e-chords go to top tab

share