Stratovarius

Mother Gaia

Stratovarius

tabs Expert expert

by  EDUARDO_LYVIO

save to print version add songbook text version e-mail correct tuner
chordsukulelecavacokeyboardtabbassdrumsharmonicaflute Guitar Pro
close

there isn't a video lesson for this song

chords

Mother Gaia

	  		Tune down a half step 
 
 
Intro (Piano only) 
Verse 1 (Piano and keyboards) 
 
 
Verse 2 
Chord progression 1 (accoustic guitar) 
 
 Dm / Em / Gm / Dm  
 
 
Addition 
 
    b            b             1st ending       2nd ending 
e(---------------------------(----------------(-------------) 
B(-13(15)=-13---10(11)=-10---(----------------(-------------) 
G(---------------------------(-12=-10-9/-7=---(-12=-14===---) 
D(---------------------------(----------------(-------------) 
A(---------------------------(----------------(-------------) 
E(---------------------------(----------------(-------------) 
 
 
Verse 3 
Chord progression 2 (accoustic guitar) 
 
 Dm / Em / Gm / A / Dm / Em / Gm / Dm  
 
Addition with 2nd ending 
 
 
Chorus 
Riff 1 (electric guitar) 
 
e(--------------------------------------------------------------------) 
B(--------------------------------------------------------------------) 
G(-3=---5=---7=---5/-3=---5=---2=---3=---6=---7=------------2=---7=---) 
D(-3=---5=---7=---5/-3=---5=---2=---3=---7=---7=------------2=---7=---) 
A(-1=---3=---5=---3/-1=---3=---0=---1=---4=---5=---3=-2=-1=-0=---5=---) 
E(--------------------------------------------------------------------) 
 
 
Guitar Solo 1 
                   b       b               b                b 
e(-------------------------------------------------------)---------------- 
B(-------------12-15(17)=-15(17)-15-13-12-12(13)-12=-----)-10(12)-10-8---- 
G(-o---9-11-12-----------------------------------------o-)-------------9=- 
D(-o---------------------------------------------------o-)---------------- 
A(-------------------------------------------------------)---------------- 
E(-------------------------------------------------------)---------------- 
 
      b            b       b                              b/a.h. 
e(-----------------------------------19=----------------------------------) 
B(-8-10(12)-10=-8-10(12)=-17(19)=-17-----------------10=-10(12)-----------) 
G(---------------------------------------14/-9=-8=-4------------9=---9=---) 
D(--------------------------------------------------------------9=---9=---) 
A(--------------------------------------------------------------7=---7=---) 
E(------------------------------------------------------------------------) 
 
 
Bridge 
Riff 2 
 
Guitar 1 
e(------------------------------------------------------------------------) 
B(--------13-12-----12-10-----12-8----12=-10=-----------------------------) 
G(--------------12=--4=---12=--7=--7=--4=--2=--------4=---7=---4=-2=------) 
D(-5=-2----5=--------5=--------7=------4=--2=---5=---5=---7=---4=-2=------) 
A(-5=-2----5=--------2=--------5=------2=--0=---5=---2=---5=---2=-0=-7===-) 
E(-3=-0----3=-----------------------------------3=------------------------) 
Guitar 2 
 
 
Guitar Solo 2 
 
e(-------------------------------------------------------------------------) 
B(-------------------------------------------------------------------------) 
G(-o--12=-9/-4-5=-9/-12-11=-7/-2-4=-7/-11-9=--5/-4/-2=-5/-9-8=-4/-2------o-) 
D(-o-----------------------------------------------------------------5=--o-) 
A(-------------------------------------------------------------------------) 
E(-------------------------------------------------------------------------) 
 
                                b 
e(---------------------------------------------------------------------- 
B(---------------------------------------------------------------------- 
G(-12=-9/-4-5=-9/-12-11=-12-14-16(17)-16-12/-7-9=-5/-4/-2=-5/-9-8-9-11/- 
D(---------------------------------------------------------------------- 
A(---------------------------------------------------------------------- 
E(---------------------------------------------------------------------- 
 
           b                           b             b 
e(--------------------------------------------15-17-19(20)-19-15/-10----- 
B(--------19(20)=-19-17/-12-13=-17-20-17(19)=------------------------13=- 
G(-14-12=---------------------------------------------------------------- 
D(----------------------------------------------------------------------- 
A(----------------------------------------------------------------------- 
E(----------------------------------------------------------------------- 
 
 
e(---------------------------------------------------------------7-12-10-8/- 
B(-12-12(13)-12-10=------------------------10=-8-7-8-7-------7-8------------ 
G(------------------12-11-12-11-9/-8/-5/-4-------------9-8-9---------------- 
D(-------------------------------------------------------------------------- 
A(-------------------------------------------------------------------------- 
E(-------------------------------------------------------------------------- 
 
 
                        Coda (Orchestra enters) 
 
e(-7-7-8-7------------(--------------------------------------------------- 
B(---------10-8-7-----(-----16-17-11-12-------------------------12-17-13=- 
G(----------------9-8-(-o---------------11-12-8-9-----8-9-11-12----------- 
D(--------------------(-o-------------------------8-9--------------------- 
A(--------------------(--------------------------------------------------- 
E(--------------------(--------------------------------------------------- 
 
e(----------------------------------------------------------------- 
B(-12-10-12-10-8/-7---14-15-9-10-------------------------10-15-12=- 
G(------------------9------------10-11-6-7-----6-7-10-11----------- 
D(-----------------------------------------6-7--------------------- 
A(----------------------------------------------------------------- 
E(----------------------------------------------------------------- 
 
e(------------------------------------------------------------------ 
B(-10-8-10-8-7/-5---12-13-7-8-----------------8-13-10=-8-7-8-7-5/-4- 
G(----------------7-----------8-9-4-5-----8-9----------------------- 
D(------------------------------------4-5--------------------------- 
A(------------------------------------------------------------------ 
E(------------------------------------------------------------------ 
 
   1st ending                            2nd ending 
                    b                                         fade out 
e(-------------------------------------)------------------------------) 
B(------12=-10-8/-7-8(10)-8-7----------)-----12=-10-10-8-8-7-7--------) 
G(-5-4=-----------------------9-9=---o-)-5-4-------------------9-9=---) 
D(-----------------------------------o-)------------------------------) 
A(-------------------------------------)------------------------------) 
E(-------------------------------------)------------------------------) 
 
 
Outro (Orchestra only) 
 
 
 
Symbol explanation: 
 
 
/     slide 
=     sustained 
b     bend (actual note in parentheses) 
a.h.  artificial harmonic 
 

		  

See also:

tabs Nightwish - Bless the child tabs HIM - Right Here In My Arms tabs Nightwish - Crimson Tide / Deep Blue Sea tabs Stratovarius - Infinity tabs HIM - It's All Tears (Unplugged) tabs Stratovarius - Distant Skies
e-chords

Other versions:

tabs Stratovarius - Mother Gaia
auto scroll beats size up size down change color hide chords drawings
tab show chords e-chords YouTube Clip e-chords hide all tabs e-chords go to top tab

share