Stratovarius

I'm Still Alive

Stratovarius

tabs Expert expert

by  GUIGRAZ

save to print version add songbook text version e-mail correct tuner
chordsukulelecavacokeyboardtabbassdrumsharmonicaflute Guitar Pro
close

there isn't a video lesson for this song

chords

I'm Still Alive

	  		Please mail me if you can find mistakes! 
 
----------------------------------------- 
 
 Tune Down 1/2 Step!  
 
  Riff 1 
E-----------------------------------------------------------------------------------| 
B-----------------------------------------------------------------------------------| 
G*----------------------------------------------------------------------------------| 
D*-------------------------------------------------5\4/5h7h9p7p5\4------------------| 
A---5h7---------7~-------------5h7---------------------------------\5h7---------7~--| 
E-------0-0-0-0----0-0-0-0-0-0-----0-0-0-0-0-0-0-0----------------------0-0-0-0----0| 
       pm......|  pm..........|   pm..............|                    pm......|  pm 
 
E-----------------------------------------------------------------------------------| 
B-----------------------------------------------------------------------------------| 
G--------------------------------5--5~----------------------------------------------| 
D--------------------------------5--4~----------------------------------------------| 
A-----------5h7------------------3--3~--5h7---------7~-------------5h7--------------| 
E-0-0-0-0-0-----0-0-0-0-0-0-0-0-------------0-0-0-0----0-0-0-0-0-0-----0-0-0-0-0-0-0| 
 ..........|   pm..............|           pm......|  pm..........|   pm............ 
 
                                                                                 x2 
E-----------------------------------------------------------------------------------| 
B-----------------------------------------------------------------------end-Riff-1--| 
G----------------------------------------------------------------------------------*| 
D---5\4h5h7h9p7p5\4----------------------------/7p5p0-0-9p7p0-0-10p9p0-0-12p10p0-0-*| 
A-------------------\5h7---------7~-------------------------------------------------| 
E-0----------------------0-0-0-0----0-0-0-0-0---------------------------------------| 
 ..|                    pm......|  pm........| 
 
E-----------------------------------------------------------------------------------| 
B-----------------------------------------------------------------------------------| 
G-----------------------------------------------------------------------------------| 
D-7p5p0-0-9p7p0-0-10p9p0-0-12p10p0-0-7p5p0-0-9p7p0-0-10p9p0-0-12p10p0-0-/12~-10-h12p| 
A-----------------------------------------------------------------------------------| 
E-----------------------------------------------------------------------------------| 
 
                 (end Intro)    Verse 1                                   Bridge 
E----------------------------||--------0~-----------------0~~-----------------------| 
B----------------------------||--------0~-----------------0~------------|-----------| 
G----------------------------||--------0~------5----------0~------5-----|----7---\--| 
Dp10--9--7-/-10--9--7--------||----2-----------5----\-2-----------5-----|----7---\--| 
A----------------------10-9--||----2-----------3----\-2-----------3-----|----5---\--| 
E----------------------------||----0----------------\-0-----------------------------| 
 
                                                     Chorus 
E-----------------------------------------------------------------------------------| 
B-----------------------|-------------|------------|--------------------------------| 
G--5------7------5~-----|---Verse-2---|---Bridge---|---9------5------7--------------| 
D--5------7------5~-----|-------------|------------|---9------5------7-----------5--| 
A--3------5------3~-----|-------------|------------|---7------3------5-----------5--| 
E----------------3~------------------------------------------------------\-0~-2~-3--| 
 
E-----------------------------------------------------------------------------------| 
B----------------------------------------------------------------------------T.bar--| 
G----5------7----/--9------5------7----------------------------/-5----4~---\\-dive--| 
D----5------7----/--9------5------7-------------5-------2----2-/-5----4~---\\\\\----| 
A----3------5----/--7------3------5-------------5-------2----2-/-3----2~------\\\---| 
E-------------------------------------\--0~-2~--3---2~--0----0-----------------\\\--| 
 
  Guitar Solo 
E-/-19p0-17p0-15p0-17p0-15p0-14p0-15p0-14p0-12p0-14p0-12p0-10p0-8p0-7p0-5p0-3p0-/19p| 
B-----------------------------------------------------------------------------------| 
G-----------------------------------------------------------------------------------| 
D-----------------------------------------------------------------------------------| 
A-----------------------------------------------------------------------------------| 
E-----------------------------------------------------------------------------------| 
 
E0-17p0-15p0-17p0-15p0-14p0-15p0-14p0-12p0-14p0-12p0-10p0-8p0-7p0-5p0-3p0-----------| 
B-------------------------------------------------------------------------/7h8p7----| 
G--------------------------------------------------------------------------------9-8| 
D-----------------------------------------------------------------------------------| 
A-----------------------------------------------------------------------------------| 
E-----------------------------------------------------------------------------------| 
                                                                                pm.. 
 
E-------------------------------------------------/-15p14p12-------14p12------------| 
B---7-8-7-------7h8---------7-8-7-------8/10~~~--------------15p14-------15p14p12\11| 
G-9-------9-8-9-----9-9-9-9-------9-9-9---------------------------------------------| 
D-----------------------------------------------------------------------------------| 
A-----------------------------------------------------------------------------------| 
E-----------------------------------------------------------------------------------| 
 ..|     pm....|     pm....|     pm....| 
 
E------------------------------------------------------------------/-15p12----12-14p| 
B-14p12p11/15p14p12-------14p12--------------------------------------------12-------| 
G-------------------15p14-------15p14p12-14p12-------15p14p12-----------------------| 
D----------------------------------------------14p12----------14--------------------| 
A-----------------------------------------------------------------------------------| 
E-----------------------------------------------------------------------------------| 
 
E12h14p12----15p12h15p12h17p12h15p12h14p12-15p12----12h15~~------------15-17~-------| 
B---------12-------------------------------------12----------/15-17-19---------17-19| 
G-----------------------------------------------------------------------------------| 
D-----------------------------------------------------------------------------------| 
A-----------------------------------------------------------------------------------| 
E-----------------------------------------------------------------------------------| 
 
E----17-19~-p17-15------------------------------------------------------------------| 
B-20---------------19-17-15---------------------------------------------------------| 
G---------------------------17-16-14----------17-16-14----16-14---------------------| 
D------------------------------------17-16-14----------17-------17-16-14------------| 
A------------------------------------------------------------------------17-15-14\12| 
E-----------------------------------------------------------------------------------| 
 
E----------------------------------------------------------------15~-17-15----------| 
B----------------------------------------------15----17-15-19-17-----------19-17-15-| 
G----------------------------------16-14-17-16----17--------------------------------| 
D----------14~--/-17~-16~--19~-17~--------------------------------------------------| 
A-----------------------------------------------------------------------------------| 
E-15-14-12--------------------------------------------------------------------------| 
 
                                        Chorus (2) 
E-----------------------------------------------------------------------------------| 
B-----------------|-------------------|---------------------------------------------| 
G-17-16-14~~-\----|---Keyboard-Solo---|*--9------5-----7----------------------5-----| 
D--------------\--|-------------------|*--9------5-----7-------------5--------5-----| 
A-----------------|-------------------|---7------3-----5-------------5--/-2~--3-----| 
E-----------------------------------------------------------\-0~-2~--3--------------| 
                                                       ______________________ ______ 
                                                      |1.                    |2. 
E-----------------------------------------------------|----------------------|------| 
B-----------------------------------------------------|----------------------|------| 
G--7----/---9----\--7-\--5-----7----------------------|/--7---5-----/--7~---*|/--7--| 
D--7----/---9----\--7-\--5-----7------------5------2--|/--7---5-----/--7~---*|/--7--| 
A--5----/---7----\--5-\--3-----5------------5------2--|/--5---3-----/--5~----|/--5--| 
E----------------------------------\-0~-2~--3--2~--0--|----------------------|------| 
 ____________________________ 
                             |                    Outro 
E----------------------------||-----------------------------------------------------| 
B----------------------------||-----------------|-----------------------------------| 
G--5-----4~----\\---T.bar----||---Riff-1-(x2)---|-----------------------------------| 
D--5-----4~----\\\\--dive----||-----------------|--7p5p0-0-9p7p0-0-10p9p0-0-12p10p0-| 
A--3-----2~----\\\\\\\-------||-----------------|-----------------------------------| 
E----------------\\\\\\\-----||-----------------------------------------------------| 
 
E-----------------------------------------------------------------------------------| 
B-----------------------------------------------------------------------------------| 
G-----------------------------------------------------------------------------------| 
D-0--7p5p0-0-9p7p0-0-10p9p0-0-12p10p0-0-/12~-10--9--7--/10~-9--7--5-/9~-7--5--4-/7~-| 
A-----------------------------------------------------------------------------------| 
E-----------------------------------------------------------------------------------| 
 
E-------------------------------------------------------------------------|| 
B-------------------------------------------------------------------------|| 
G-----------T.bar----5~~-----2~~------------------------T.bar-------------|| end 
D--5--4--5-\\-dive---5~~-----2~~----\--2~~~--------------dive-------------|| 
A-----------\\-------3~~-----0~~----\--2~~~--------------\\\\\-------\----|| 
E------------\\------3~~-----0~~----\--0~~~---------------\\\\\\-----\----|| 
 
-------------------------------------------------------------------------------------- 
 
  Rhythm Guitar during Guitar Solo 
E-----------------------------------------------------------------------------------| 
B-----------------------------------------------------------------------------------| 
G*----------------------------------------------------------------7h9---------------| 
D*---------------------------------------------------------7h9h10-------------------| 
A---7-7-7-7-7-7-7-7-7-7-7-7-7-7-7-7-7-7-7-7-7-7-7-7-7h9h10--------------------------| 
E---------------------------------------------------------------------\-8-8-8-8-8-8-| 
     pm............................................|                     pm......... 
                                                          x4 
E------------------------------------------------------------|| 
B------------------------------------------------------------|| 
G-----------------------------------------------------------*|| end 
D-----------------------------------------------------9h10--*|| 
A---------------------------------------------9h10h12--------|| 
E-8-8-8-8-8-8-8-8-8-8-8-8-8-8-8-8-8-8-8h10h12----------------|| 
 ....................................| 
 
  Rhythm Guitar during Keyboard Solo 
E-----------------------------------------------------------------------------------| 
B-----------------------------------------------------------------------------------| 
G-----------------------------------------------------------------------------------| 
D-----------------------------------------------------------------------------------| 
A--0-0-0-0-0-0-0-0-0-0-0-0-0-0-0-0-0-0-0-0-0-0-0-0-0-0/2-2/3-3\0-0-/2-2-2-2-2-2-2-2-| 
E-----------------------------------------------------------------------------------| 
    pm............................................................|  pm............. 
 
E-----------------------------------------------------------------------------------| 
B-----------------------------------------------------------------------------------| 
G-----------------------------------------------------------------------------------| 
D-----------------------------------------------------------------------------------| 
A-2-2-2-2-2-2-2-2-2-2-2-2-2-2-2-2-2-2/3-3/5-5\2-2-/3-3-3-3-3-3-3-3-3-3-3-3-3-3-3-3-3| 
E-----------------------------------------------------------------------------------| 
 ................................................|  pm.............................. 
 
E-----------------------------------------------------------------------------------| 
B-----------------------------------------------------------------------------------| 
G-----------------------------------------------------------------------------------| 
D-----------------------------------------------------------------------------------| 
A-3-3-3-3-3-3-3-3-3/5-5/7-7\3-3-/5-5-5-5-5-5-5-5-5-5-5-5-5-5-5-5-5-5-5-5-5-5-5-5-5-5| 
E-----------------------------------------------------------------------------------| 
 ...............................| pm................................................ 
 
E-----------------------------------------------------------------------------------| 
B-----------------------------------------------------------------------------------| 
G-----------------------------------------------------------------------------------| 
D-----------------------------------------------------------------------------------| 
A-5-5-5-5-5-5--\2-2-2-2-2-2-2-2-2-2-2-2-2-2-2-2-2-2-2-2-2-2-2-2-2-2/3-3\5-5\2-2-/-3-| 
E-----------------------------------------------------------------------------------| 
 ............|   pm............................................................| 
 
E-----------------------------------------------------------------------------------| 
B-----------------------------------------------------------------------------------| 
G-----------------------------------------------------------------------------------| 
D-----------------------------------------------------------------------------------| 
A-3-3-3-3-3-3-3-3-3-3-3-3-3-3-3-3-3-3-3-3-3-3-3-3-3-3/5-5/7-7\3-3-/-5-5-5-5-5-5-5-5-| 
E-----------------------------------------------------------------------------------| 
 pm..............................................................|   pm............. 
 
E-----------------------------------------------------------------------------------| 
B-----------------------------------------------------------------------------------| 
G-----------------------------------------------------------------------------------| 
D-----------------------------------------------------------------------------------| 
A-5-5-5-5-5-5-5-5-5-5-5-5-5-5-5-5-5-5-5-5-5-5-5-5-5-5-5-5-5-5-5-5-5-5-5-5-5-5-5-5-5-| 
E-----------------------------------------------------------------------------------| 
 ................................................................................... 
 
E-------------------------------------|| 
B-------------------------------------|| 
G-------------------------------------|| end 
D-------------------------------------|| 
A-5-5-5-5-5-5-5-5-5-5-5-5-5-5-5-\-----|| 
E---------------------------------\---|| 
 ..............................| 
 
-------------------------------------------------------------------------------------- 
 
======================= 
=TABLATURE EXPLANATION= 
======================= 
 
A.H. = Artificial harmonic 
 
<<<< = Volume swell effect 
 
>>>> = Volume decrease effect 
 
pm..| = Palm mute 
 
h = hammer on 
 
p = pull off 
 
/ = slide up 
 
\ = slide down 
 
~ = Vibrato 
 
b() = Bend 
 
x\ = Pick slide 
 
-------- 
-------- 
---12--- = Tremolo pick 
----/--- 
----/--- 
----/--- 
 
---.--- 
--12--- = Staccato 
------- 
------- 
------- 
 
|     | 
|     | 
|*   *| = repeat from * to * 
|*   *|  
|     | 
 
LYRICS: 
**************************************************** 
 
Look around, turn around 
You just might fall to the ground 
Sail away, break away 
Damage done nothing to say 
 
All my live I've felt like an outcast 
But not anymore, a thing of the past 
 
Feel the sun, got to run 
Feels like life has just begun 
All is new different view 
So many things that I will do 
 
I'm leaving behind the things I don't need 
And with confidence I'm planting the seed 
 
I'M STILL ALIVE 
I'M READY TO FEEL THE WIND IN MY HAIR 
AND I KNOW THERE ARE SO MANY THINGS TO SHARE 
I WILL WRITE MY STORY AGAIN 
MASTERPLAN OF A NEW KIND 
I WAS LOST BUT NOW I'M FOUND 
 
I'M STILL ALIVE 
 
I'M STILL ALIVE 
I'M READY TO FEEL THE WIND IN MY HAIR 
AND I KNOW THERE ARE SO MANY THINGS TO SHARE 
I WILL WRITE MY STORY AGAIN 
MASTERPLAN OF A NEW KIND 
I WAS LOST BUT NOW I'M FOUND 
 
I'M STILL ALIVE 
I'M READY TO FEEL THE WIND IN MY HAIR 
AND I KNOW THERE ARE SO MANY THINGS TO SHARE 
I WILL WRITE MY STORY AGAIN 
MASTERPLAN OF A NEW KIND 
I WAS LOST BUT NOW I'M FOUND 
 
I'M STILL ALIVE 

		  

See also:

tabs Nightwish - Bless the child tabs HIM - Right Here In My Arms tabs Nightwish - Crimson Tide / Deep Blue Sea tabs Stratovarius - Infinity tabs HIM - It's All Tears (Unplugged) tabs Stratovarius - Distant Skies
e-chords

Other versions:

tabs Stratovarius - I'm Still Alive
auto scroll beats size up size down change color hide chords drawings
tab show chords e-chords YouTube Clip e-chords hide all tabs e-chords go to top tab

share