Stone Sour

Whiplash Pants

Stone Sour

tabs

by  TERR_SCHMITZ

save to print version add songbook text version e-mail correct tuner
chordsukulelecavacokeyboardtabbassdrumsharmonicaflute Guitar Pro
close

there isn't a video lesson for this song

chords

Whiplash Pants

	  		
Intro: (0:00 - 0:33) 

Guitar 0 (Piano Arranged for Guitar in Drop B tuning B F# B E G# C#) 

C#|------------------------------|------------------------------| 
G#|------------------------------|------------------------------| 
 E|------------------------------|------------------------------| 
 B|--1---------4--------2--------|--1---------4--------2--------| 
F#|--1---------4--------2--------|--1---------4--------2--------| 
 B|--1---------4--------2--------|--1---------4--------2--------| 


Guitar 1 (Distorted Electric) (0:00 - 0:19) (Riff 1) 

C#|------------------------------|------------------------------| 
G#|------------9--7--------------|------------9--7--------------| 
 E|--8---------------8--9--8-----|--8---------------8--9--8-----| 
 B|-----11--8-----------------9--|-----11--8-----------------9--| 
F#|------------------------------|------------------------------| 
C#|------------------------------|------------------------------| 

Guitar 2 (Distorted Electric) (0:20 - 0:33) (Riff 2) 

C#|------------------------------------------------------|-------------------------------------| 
G#|------------------------------------------------------|-------------------------------------| 
 E|------------------------------------------------------|-------------------------------------| 
 B|------------------------------------------------------|-------------------------------------| 
F#|--------------------------------------7p0-----7p0-----|-------------------------------------| 
C#|--0--0-4-5-7--4~-0-4-5-7--3~-0-3-4-6--0---0-0-0---0-0-|-0--0-4-5-7--4~-0-4-5-7--3~-0-3-4-6--| 
                                           PM. .     . . 

C#|------------------|-------------------------------------| 
G#|------------------|-------------------------------------| 
 E|------------------|-------------------------------------| 
 B|------------------|-------------------------------------| 
F#|--7p0-----7p0-----|-------------------------------------| 
C#|--0---0-0-0---0-0-|-0--0-4-5-7--4~-0-4-5-7--3~-0-3-4-6--| 
       PM. .     . . 


verse 1 (0:33 - 0:58) 

Guitar 1 (Distorted Electric) (0:33 - 0:58) (Riff 3) 

C#|-------------------------------------|------------------------------------| 
G#|-------------------------------------|------------------------------------| 
 E|-------------------------------------|------------------------------------| 
 B|--9--9--9-----------9--9--9----------|-9--9--9-----------9--9--9----------| 
F#|--7--7--7-----------7--7--7----------|-7--7--7-----------7--7--7----------| 
C#|--0--0--0--0-0-0-0--0--0--0--0-0-0-0-|-0--0--0--0-0-0-0--0--0--0--0-0-0-0-| 
            PM. . . .           . . . .            . . . .           . . . .  


C#|--------------------------------------------------|--------------------------------------| 
G#|--------------------------------------------------|--------------------------------------| 
 E|--------------------------------------------------|--------------------------------------| 
 B|--9--9--9-----------------------------------------|--9--9--9-----------9--9--9-----------| 
F#|--7--7--7-----------5--5-5-5-5-5--6--6-6--8--8-8--|--7--7--7-----------7--7--7-----------| 
C#|--0--0--0--0-0-0-0--3--3-3-3-3-3--4--4-4--6--6-6--|--0--0--0--0-0-0-0--0--0--0--0-0-0-0--| 
            PM. . . .                                            . . . .           . . . . 

C#|--------------------|-------------------------------| 
G#|--------------------|-------------------------------| 
 E|--------------------|-------------------------------| 
 B|--9--9--9-----------|-------------------------------| 
F#|--7--7--7-----------|-5--5-5-5-5-5--6--6-6--8--8-8--| 
C#|--0--0--0--0-0-0-0--|-3--3-3-3-3-3--4--4-4--6--6-6--| 
            PM. . . .   


Guitar 2 (Distorted Electric) (0:33 - 0:58) (Riff 3a) 

C#|-------------------------------------|------------------------------------| 
G#|-------------------------------------|------------------------------------| 
 E|-------------------------------------|------------------------------------| 
 B|--2--2--2-----------2--2--2----------|-2--2--2-----------2--2--2----------| 
F#|--2--2--2-----------2--2--2----------|-2--2--2-----------2--2--2----------| 
C#|--0--0--0--0-0-0-0--0--0--0--0-0-0-0-|-0--0--0--0-0-0-0--0--0--0--0-0-0-0-| 
            PM. . . .           . . . .            . . . .           . . . .  


C#|--------------------------------------------------|--------------------------------------| 
G#|--------------------------------------------------|--------------------------------------| 
 E|--------------------------------------------------|--------------------------------------| 
 B|--2--2--2-----------------------------------------|--2--2--2-----------2--2--2-----------| 
F#|--2--2--2-----------5--5-5-5-5-5--6--6-6--8--8-8--|--2--2--2-----------2--2--2-----------| 
C#|--0--0--0--0-0-0-0--3--3-3-3-3-3--4--4-4--6--6-6--|--0--0--0--0-0-0-0--0--0--0--0-0-0-0--| 
            PM. . . .                                            . . . .           . . . . 

C#|--------------------|-------------------------------| 
G#|--------------------|-------------------------------| 
 E|--------------------|-------------------------------| 
 B|--2--2--2-----------|-------------------------------| 
F#|--2--2--2-----------|-5--5-5-5-5-5--6--6-6--8--8-8--| 
C#|--0--0--0--0-0-0-0--|-3--3-3-3-3-3--4--4-4--6--6-6--| 
            PM. . . .   


PreChorus 1 (0:58 - 1:08) 

Guitar 1 (Distorted Electric) (0:58 - 1:08) (Riff 4) 

C#|-------------------------------|------------------------------| 
G#|-------------------------------|------------------------------| 
 E|-------------------------------|------------------------------| 
 B|-------------------------------|------------------------------| 
F#|-------------------------------|------------------------------| 
C#|--2h4-4-4-4-4-4--2-h4--4-4-4-4-|-2h4-4-4-4-4-4--2-h4--4--2~---| 


C#|-------------------------------|------------------------------| 
G#|-------------------------------|------------------------------| 
 E|-------------------------------|------------------------------| 
 B|-------------------------------|------------------------------| 
F#|-------------------------------|------------------------------| 
C#|--2h4-4-4-4-4-4--2-h4--4-4-4-4-|-2h4-4-4-4-4-4--2-h4--4--2~---| 


Guitar 2 (Distorted Electric) (0:58 - 1:08) (Riff 4a) 

C#|-------------------------------|------------------------------| 
G#|-------------------------------|------------------------------| 
 E|-------------------------------|------------------------------| 
 B|-------------------------------|------------------------------| 
F#|--4/6-6-6-6-6-6--4-/6--6-6-6-6-|-4/6-6-6-6-6-6--4-/6--6--4----| 
C#|--2/4-4-4-4-4-4--2-/4--4-4-4-4-|-2/4-4-4-4-4-4--2-/4--4--2~---| 


C#|-------------------------------|------------------------------| 
G#|-------------------------------|------------------------------| 
 E|-------------------------------|------------------------------| 
 B|-------------------------------|------------------------------| 
F#|--4/6-6-6-6-6-6--4-/6--6-6-6-6-|-4/6-6-6-6-6-6--4-/6--6--4----| 
C#|--2/4-4-4-4-4-4--2-/4--4-4-4-4-|-2/4-4-4-4-4-4--2-/4--4--2~---| 


Chorus 1 (1:08 - 1:27) 

Guitar 1 (Distorted Electric) (1:08 - 1:27) (Riff 1) 

C#|------------------------------|------------------------------| 
G#|------------9--7--------------|------------9--7--------------| 
 E|--8---------------8--9--8-----|--8---------------8--9--8-----| 
 B|-----11--8-----------------9--|-----11--8-----------------9--| 
F#|------------------------------|------------------------------| 
C#|------------------------------|------------------------------| 


Guitar 2 (Distorted Electric) (1:08 - 1:27) (Riff 5) 

C#|----------------------------------|----------------------------------|----------------------------------| 
G#|----------------------------------|----------------------------------|----------------------------------| 
 E|----------------------------------|----------------------------------|----------------------------------| 
 B|----------------------------------|----------------------------------|----------------------------------| 
F#|--4h6-6-6-6-6-4h6-6-6-6-6-4h6-6-6-|----------------------------------|-7-7-7-7-7-7-7-7-7-7-7-7-7-7-7-7--| 
C#|----------------------------------|-7-7-7-7-7-7-7-7-7-7-7-7-7-7-7-7--|----------------------------------| 


C#|-----------------------------------|---------------------------------|----------------------------------| 
G#|-----------------------------------|---------------------------------|----------------------------------| 
 E|-----------------------------------|---------------------------------|----------------------------------| 
 B|-----------------------------------|---------------------------------|----------------------------------| 
F#|--7-7-7-6-6-6-----7-7-7-6-6-6------|-4h6-6-6-6-6-4h6-6-6-6-6-4h6-6-6-|----------------------------------| 
C#|--------------7----------------7---|---------------------------------|--7-7-7-7-7-7-7-7-7-7-7-7-7-7-7-7-| 


C#|-----------------------------------|-------------------------------| 
G#|-----------------------------------|-------------------------------| 
 E|-----------------------------------|-------------------------------| 
 B|-----------------------------------|-------------------------------| 
F#|--7-7-7-7-7-7-7-7-7-7-7-7-7-7-7-7--|-5--5-5-5-5-5--6--6-6--8--8-8--| 
C#|-----------------------------------|-3--3-3-3-3-3--4--4-4--6--6-6--| 


verse 2 (1:27 - 1:47) 

Guitar 1 (Distorted Electric) (1:27 - 1:47) (Riff 3) 

C#|--------------------------------------------------------|-------------------------------| 
G#|--------------------------------------------------------|-------------------------------| 
 E|--------------------------------------------------------|-------------------------------| 
 B|--9--9--9-----------9--9--9-----------9--9--9-----------|-------------------------------| 
F#|--7--7--7-----------7--7--7-----------7--7--7-----------|-5--5-5-5-5-5--6--6-6--8--8-8--| 
C#|--0--0--0--0-0-0-0--0--0--0--0-0-0-0--0--0--0--0-0-0-0--|-3--3-3-3-3-3--4--4-4--6--6-6--| 
            PM. . . .           . . . .           . . . .          


C#|--------------------------------------------------------|-------------------------------| 
G#|--------------------------------------------------------|-------------------------------| 
 E|--------------------------------------------------------|-------------------------------| 
 B|--9--9--9-----------9--9--9-----------9--9--9-----------|-------------------------------| 
F#|--7--7--7-----------7--7--7-----------7--7--7-----------|-5--5-5-5-5-5--6--6-6--8--8-8--| 
C#|--0--0--0--0-0-0-0--0--0--0--0-0-0-0--0--0--0--0-0-0-0--|-3--3-3-3-3-3--4--4-4--6--6-6--| 
            PM. . . .           . . . .           . . . . 


Guitar 2 (Distorted Electric) (1:27 - 1:47) (Riff 3a) 

C#|--------------------------------------------------------|-------------------------------| 
G#|--------------------------------------------------------|-------------------------------| 
 E|--------------------------------------------------------|-------------------------------| 
 B|--2--2--2-----------2--2--2-----------2--2--2-----------|-------------------------------| 
F#|--2--2--2-----------2--2--2-----------2--2--2-----------|-5--5-5-5-5-5--6--6-6--8--8-8--| 
C#|--0--0--0--0-0-0-0--0--0--0--0-0-0-0--0--0--0--0-0-0-0--|-3--3-3-3-3-3--4--4-4--6--6-6--| 
            PM. . . .           . . . .           . . . .          

C#|--------------------------------------------------------|-------------------------------| 
G#|--------------------------------------------------------|-------------------------------| 
 E|--------------------------------------------------------|-------------------------------| 
 B|--2--2--2-----------2--2--2-----------2--2--2-----------|-------------------------------| 
F#|--2--2--2-----------2--2--2-----------2--2--2-----------|-5--5-5-5-5-5--6--6-6--8--8-8--| 
C#|--0--0--0--0-0-0-0--0--0--0--0-0-0-0--0--0--0--0-0-0-0--|-3--3-3-3-3-3--4--4-4--6--6-6--| 
            PM. . . .           . . . .           . . . .          


PreChorus 2 (1:47 - 1:57) 

Guitar 1 (Distorted Electric) (1:47 - 1:57) (Riff 4) 

C#|-------------------------------|------------------------------| 
G#|-------------------------------|------------------------------| 
 E|-------------------------------|------------------------------| 
 B|-------------------------------|------------------------------| 
F#|-------------------------------|------------------------------| 
C#|--2h4-4-4-4-4-4--2-h4--4-4-4-4-|-2h4-4-4-4-4-4--2-h4--4--2~---| 


C#|-------------------------------|------------------------------| 
G#|-------------------------------|------------------------------| 
 E|-------------------------------|------------------------------| 
 B|-------------------------------|------------------------------| 
F#|-------------------------------|------------------------------| 
C#|--2h4-4-4-4-4-4--2-h4--4-4-4-4-|-2h4-4-4-4-4-4--2-h4--4--2~---| 


Guitar 2 (Distorted Electric) (1:47 - 1:57) (Riff 4a) 

C#|-------------------------------|------------------------------| 
G#|-------------------------------|------------------------------| 
 E|-------------------------------|------------------------------| 
 B|-------------------------------|------------------------------| 
F#|--4/6-6-6-6-6-6--4-/6--6-6-6-6-|-4/6-6-6-6-6-6--4-/6--6--4----| 
C#|--2/4-4-4-4-4-4--2-/4--4-4-4-4-|-2/4-4-4-4-4-4--2-/4--4--2~---| 


C#|-------------------------------|------------------------------| 
G#|-------------------------------|------------------------------| 
 E|-------------------------------|------------------------------| 
 B|-------------------------------|------------------------------| 
F#|--4/6-6-6-6-6-6--4-/6--6-6-6-6-|-4/6-6-6-6-6-6--4-/6--6--4----| 
C#|--2/4-4-4-4-4-4--2-/4--4-4-4-4-|-2/4-4-4-4-4-4--2-/4--4--2~---| 


Chorus 2 (1:57 - 2:16) 

Guitar 1 (Distorted Electric) (1:57 - 2:16) (Riff 1) 

C#|------------------------------|------------------------------| 
G#|------------9--7--------------|------------9--7--------------| 
 E|--8---------------8--9--8-----|--8---------------8--9--8-----| 
 B|-----11--8-----------------9--|-----11--8-----------------9--| 
F#|------------------------------|------------------------------| 
C#|------------------------------|------------------------------| 


Guitar 2 (Distorted Electric) (1:57 - 2:16) (Riff 5) 

C#|----------------------------------|----------------------------------|----------------------------------| 
G#|----------------------------------|----------------------------------|----------------------------------| 
 E|----------------------------------|----------------------------------|----------------------------------| 
 B|----------------------------------|----------------------------------|----------------------------------| 
F#|--4h6-6-6-6-6-4h6-6-6-6-6-4h6-6-6-|----------------------------------|-7-7-7-7-7-7-7-7-7-7-7-7-7-7-7-7--| 
C#|----------------------------------|-7-7-7-7-7-7-7-7-7-7-7-7-7-7-7-7--|----------------------------------| 


C#|-----------------------------------|---------------------------------|----------------------------------| 
G#|-----------------------------------|---------------------------------|----------------------------------| 
 E|-----------------------------------|---------------------------------|----------------------------------| 
 B|-----------------------------------|---------------------------------|----------------------------------| 
F#|--7-7-7-6-6-6-----7-7-7-6-6-6------|-4h6-6-6-6-6-4h6-6-6-6-6-4h6-6-6-|----------------------------------| 
C#|--------------7----------------7---|---------------------------------|--7-7-7-7-7-7-7-7-7-7-7-7-7-7-7-7-| 


C#|-----------------------------------|-------------------------------| 
G#|-----------------------------------|-------------------------------| 
 E|-----------------------------------|-------------------------------| 
 B|-----------------------------------|-------------------------------| 
F#|--7-7-7-7-7-7-7-7-7-7-7-7-7-7-7-7--|-5--5-5-5-5-5--6--6-6--8--8-8--| 
C#|-----------------------------------|-3--3-3-3-3-3--4--4-4--6--6-6--| 


Solo (2:16 - 2:45) 

Guitar 1 (Distorted Electric) (2:16 - 2:45) (Solo) 

Guitar 2 (Distorted Electric) (2:16 - 2:45) (Riff 6) 

C#|-----------------------------------|----------------------------|-----------------------------------| 
G#|-----------------------------------|----------------------------|-----------------------------------| 
 E|-----------------------------------|----------------------------|-----------------------------------| 
 B|-----------------------------------|------------------------2~--|-----------------------------------| 
F#|-----------------------------------|----------------------------|-----------------------------------| 
C#|--0h2-2-2-2-2-2-2--0h2-2-2-2-2-2-2-|-0h2-2-2-2-2-2-2--0h2-------|-0h2-2-2-2-2-2-2--0h2-2-2-2-2-2-2--| 


C#|-----------------------------|----------------------------------|----------------------------| 
G#|-----------------------------|----------------------------------|----------------------------| 
 E|-----------------------------|----------------------------------|----------------------------| 
 B|-------------------------2~--|----------------------------------|------------------------4~--| 
F#|-----------------------------|----------------------------------|----------------------------| 
C#|--0h2-2-2-2-2-2-2--0h2-------|-2h4-4-4-4-4-4-4--2h4-4-4-4-4-4-4-|-2h4-4-4-4-4-4-4--2h4-------| 


C#|-----------------------------------|----------------------------|-----------------------------------| 
G#|-----------------------------------|----------------------------|-----------------------------------| 
 E|-----------------------------------|----------------------------|-----------------------------------| 
 B|-----------------------------------|------------------------4~--|-----------------------------------| 
F#|-----------------------------------|----------------------------|-----------------------------------| 
C#|--2h4-4-4-4-4-4-4--2h4-4-4-4-4-4-4-|-2h4-4-4-4-4-4-4--2h4-------|--0h2-2-2-2-2-2-2--0h2-2-2-2-2-2-2-| 


C#|-----------------------------|-----------------------------------|----------------------------| 
G#|-----------------------------|-----------------------------------|----------------------------| 
 E|-----------------------------|-----------------------------------|----------------------------| 
 B|-------------------------2~--|-----------------------------------|------------------------2~--| 
F#|-----------------------------|-----------------------------------|----------------------------| 
C#|--0h2-2-2-2-2-2-2--0h2-------|-0h2-2-2-2-2-2-2--0h2-2-2-2-2-2-2--|-0h2-2-2-2-2-2-2--0h2-------| 


verse 3 (2:45 - 3:15) 

Guitar 1 (Distorted Electric) (2:45 - 3:15) (Riff 7) 

C#|--------------------------------------|--------------------------------------| 
G#|--------------------------------------|--------------------------------------| 
 E|--------------------------------------|--------------------------------------| 
 B|--9--9--9--x-x-x-x--9--9--9--x-x-x-x--|--9--9--9--x-x-x-x--9--9--9--x-x-x-x--| 
F#|--8--8--8--x-x-x-x--8--8--8--x-x-x-x--|--8--8--8--x-x-x-x--8--8--8--x-x-x-x--| 
C#|--7--7--7--x-x-x-x--7--7--7--x-x-x-x--|--7--7--7--x-x-x-x--7--7--7--x-x-x-x--| 

C#|--------------------------------------------------------|-------------------------------| 
G#|--------------------------------------------------------|-------------------------------| 
 E|--------------------------------------------------------|-------------------------------| 
 B|--9--9--9-----------9--9--9-----------9--9--9-----------|-------------------------------| 
F#|--7--7--7-----------7--7--7-----------7--7--7-----------|-5--5-5-5-5-5--6--6-6--8--8-8--| 
C#|--0--0--0--0-0-0-0--0--0--0--0-0-0-0--0--0--0--0-0-0-0--|-3--3-3-3-3-3--4--4-4--6--6-6--| 
            PM. . . .           . . . .           . . . .          

C#|--------------------------------------------------------|-------------------------------| 
G#|--------------------------------------------------------|-------------------------------| 
 E|--------------------------------------------------------|-------------------------------| 
 B|--9--9--9-----------9--9--9-----------9--9--9-----------|-------------------------------| 
F#|--7--7--7-----------7--7--7-----------7--7--7-----------|-5--5-5-5-5-5--6--6-6--8--8-8--| 
C#|--0--0--0--0-0-0-0--0--0--0--0-0-0-0--0--0--0--0-0-0-0--|-3--3-3-3-3-3--4--4-4--6--6-6--| 
            PM. . . .           . . . .           . . . . 


Guitar 2 (Distorted Electric) (2:45 - 3:15) (Riff 7a) 

C#|--------------------------------------|--------------------------------------| 
G#|--------------------------------------|--------------------------------------| 
 E|--------------------------------------|--------------------------------------| 
 B|--9--9--9-----------9--9--9-----------|--9--9--9-----------9--9--9-----------| 
F#|--8--8--8-----------8--8--8-----------|--8--8--8-----------8--8--8-----------| 
C#|--0--0--0--0-0-0-0--0--0--0--0-0-0-0--|--0--0--0--0-0-0-0--0--0--0--0-0-0-0--| 
            PM. . . .           . . . .              . . . .           . . . . 

C#|--------------------------------------------------------|-------------------------------| 
G#|--------------------------------------------------------|-------------------------------| 
 E|--------------------------------------------------------|-------------------------------| 
 B|--2--2--2-----------2--2--2-----------2--2--2-----------|-------------------------------| 
F#|--2--2--2-----------2--2--2-----------2--2--2-----------|-5--5-5-5-5-5--6--6-6--8--8-8--| 
C#|--0--0--0--0-0-0-0--0--0--0--0-0-0-0--0--0--0--0-0-0-0--|-3--3-3-3-3-3--4--4-4--6--6-6--| 
            PM. . . .           . . . .           . . . .          

C#|--------------------------------------------------------|-------------------------------| 
G#|--------------------------------------------------------|-------------------------------| 
 E|--------------------------------------------------------|-------------------------------| 
 B|--2--2--2-----------2--2--2-----------2--2--2-----------|-------------------------------| 
F#|--2--2--2-----------2--2--2-----------2--2--2-----------|-5--5-5-5-5-5--6--6-6--8--8-8--| 
C#|--0--0--0--0-0-0-0--0--0--0--0-0-0-0--0--0--0--0-0-0-0--|-3--3-3-3-3-3--4--4-4--6--6-6--| 
            PM. . . .           . . . .           . . . .          



PreChorus 3 (3:15 - 3:25) 

Guitar 1 (Distorted Electric) (3:15 - 3:25) (Riff 4) 

C#|-------------------------------|------------------------------| 
G#|-------------------------------|------------------------------| 
 E|-------------------------------|------------------------------| 
 B|-------------------------------|------------------------------| 
F#|-------------------------------|------------------------------| 
C#|--2h4-4-4-4-4-4--2-h4--4-4-4-4-|-2h4-4-4-4-4-4--2-h4--4--2~---| 


C#|-------------------------------|------------------------------| 
G#|-------------------------------|------------------------------| 
 E|-------------------------------|------------------------------| 
 B|-------------------------------|------------------------------| 
F#|-------------------------------|------------------------------| 
C#|--2h4-4-4-4-4-4--2-h4--4-4-4-4-|-2h4-4-4-4-4-4--2-h4--4--2~---| 


Guitar 2 (Distorted Electric) (3:15 - 3:25) (Riff 4a) 

C#|-------------------------------|------------------------------| 
G#|-------------------------------|------------------------------| 
 E|-------------------------------|------------------------------| 
 B|-------------------------------|------------------------------| 
F#|--4/6-6-6-6-6-6--4-/6--6-6-6-6-|-4/6-6-6-6-6-6--4-/6--6--4----| 
C#|--2/4-4-4-4-4-4--2-/4--4-4-4-4-|-2/4-4-4-4-4-4--2-/4--4--2~---| 


C#|-------------------------------|------------------------------| 
G#|-------------------------------|------------------------------| 
 E|-------------------------------|------------------------------| 
 B|-------------------------------|------------------------------| 
F#|--4/6-6-6-6-6-6--4-/6--6-6-6-6-|-4/6-6-6-6-6-6--4-/6--6--4----| 
C#|--2/4-4-4-4-4-4--2-/4--4-4-4-4-|-2/4-4-4-4-4-4--2-/4--4--2~---| 


Chorus 3 (3:25 - 4:03) 

Guitar 1 (Distorted Electric) (3:25 - 4:03) (Riff 1) 

C#|------------------------------|------------------------------| 
G#|------------9--7--------------|------------9--7--------------| 
 E|--8---------------8--9--8-----|--8---------------8--9--8-----| 
 B|-----11--8-----------------9--|-----11--8-----------------9--| 
F#|------------------------------|------------------------------| 
C#|------------------------------|------------------------------| 


C#|------------------------------|------------------------------| 
G#|------------9--7--------------|------------9--7--------------| 
 E|--8---------------8--9--8-----|--8---------------8--9--8-----| 
 B|-----11--8-----------------9--|-----11--8-----------------9--| 
F#|------------------------------|------------------------------| 
C#|------------------------------|------------------------------| 


Guitar 2 (Distorted Electric) (3:25 - 4:03) (Riff 5) 

C#|----------------------------------|----------------------------------|----------------------------------| 
G#|----------------------------------|----------------------------------|----------------------------------| 
 E|----------------------------------|----------------------------------|----------------------------------| 
 B|----------------------------------|----------------------------------|----------------------------------| 
F#|--4h6-6-6-6-6-4h6-6-6-6-6-4h6-6-6-|----------------------------------|-7-7-7-7-7-7-7-7-7-7-7-7-7-7-7-7--| 
C#|----------------------------------|-7-7-7-7-7-7-7-7-7-7-7-7-7-7-7-7--|----------------------------------| 


C#|-----------------------------------|---------------------------------|----------------------------------| 
G#|-----------------------------------|---------------------------------|----------------------------------| 
 E|-----------------------------------|---------------------------------|----------------------------------| 
 B|-----------------------------------|---------------------------------|----------------------------------| 
F#|--7-7-7-6-6-6-----7-7-7-6-6-6------|-4h6-6-6-6-6-4h6-6-6-6-6-4h6-6-6-|----------------------------------| 
C#|--------------7----------------7---|---------------------------------|--7-7-7-7-7-7-7-7-7-7-7-7-7-7-7-7-| 


C#|-----------------------------------|-------------------------------| 
G#|-----------------------------------|-------------------------------| 
 E|-----------------------------------|-------------------------------| 
 B|-----------------------------------|-------------------------------| 
F#|--7-7-7-7-7-7-7-7-7-7-7-7-7-7-7-7--|-5--5-5-5-5-5--6--6-6--8--8-8--| 
C#|-----------------------------------|-3--3-3-3-3-3--4--4-4--6--6-6--| 


C#|----------------------------------|----------------------------------|----------------------------------| 
G#|----------------------------------|----------------------------------|----------------------------------| 
 E|----------------------------------|----------------------------------|----------------------------------| 
 B|----------------------------------|----------------------------------|----------------------------------| 
F#|--4h6-6-6-6-6-4h6-6-6-6-6-4h6-6-6-|----------------------------------|-7-7-7-7-7-7-7-7-7-7-7-7-7-7-7-7--| 
C#|----------------------------------|-7-7-7-7-7-7-7-7-7-7-7-7-7-7-7-7--|----------------------------------| 


C#|-----------------------------------|---------------------------------|----------------------------------| 
G#|-----------------------------------|---------------------------------|----------------------------------| 
 E|-----------------------------------|---------------------------------|----------------------------------| 
 B|-----------------------------------|---------------------------------|----------------------------------| 
F#|--7-7-7-6-6-6-----7-7-7-6-6-6------|-4h6-6-6-6-6-4h6-6-6-6-6-4h6-6-6-|----------------------------------| 
C#|--------------7----------------7---|---------------------------------|--7-7-7-7-7-7-7-7-7-7-7-7-7-7-7-7-| 


C#|-----------------------------------|-------------------------------| 
G#|-----------------------------------|-------------------------------| 
 E|-----------------------------------|-------------------------------| 
 B|-----------------------------------|-------------------------------| 
F#|--7-7-7-7-7-7-7-7-7-7-7-7-7-7-7-7--|-5--5-5-5-5-5--6--6-6--8--8-8--| 
C#|-----------------------------------|-3--3-3-3-3-3--4--4-4--6--6-6--| 



Outro (4:03 - 4:13) 

Guitar 1 (Distorted Electric) (4:03 - 4:13) (Riff 7) 

C#|--------------------------------------|--------------------------------| 
G#|--------------------------------------|--------------------------------| 
 E|--------------------------------------|--------------------------------| 
 B|--9--9--9--x-x-x-x--9--9--9--x-x-x-x--|--9--9--9--x-x-x-x--9--9--9-----| 
F#|--8--8--8--x-x-x-x--8--8--8--x-x-x-x--|--8--8--8--x-x-x-x--8--8--8-----| 
C#|--7--7--7--x-x-x-x--7--7--7--x-x-x-x--|--7--7--7--x-x-x-x--7--7--7-----| 


Guitar 2 (Distorted Electric) (4:03 - 4:13) (Riff 7a) 

C#|--------------------------------------|--------------------------------| 
G#|--------------------------------------|--------------------------------| 
 E|--------------------------------------|--------------------------------| 
 B|--9--9--9-----------9--9--9-----------|--9--9--9-----------9--9--9-----| 
F#|--8--8--8-----------8--8--8-----------|--8--8--8-----------8--8--8-----| 
C#|--0--0--0--0-0-0-0--0--0--0--0-0-0-0--|--0--0--0--0-0-0-0--0--0--0-----| 
            PM. . . .           . . . .              . . . .            




Tab Legend 

| /  slide up 
| \  slide down 
| h  hammer-on 
| p  pull-off 
| ~  vibrato 
| +  harmonic 
| x  Mute note 
=============================================================================== 
		  

See also:

tabs Isaac Albeniz - Asturias (Leyenda) tabs Iron Butterfly - IronButterfly-in A Gadda Da Vida tabs Black Crowes - Jealous Again tabs Chris Cornell - Black Hole Sun tabs Hoobastank - The Reason Acoustic tabs Black Crowes - Hard To Handle
e-chords

Other versions:

tabs Stone Sour - Whiplash Pants
auto scroll beats size up size down change color hide chords drawings
tab show chords e-chords YouTube Clip e-chords hide all tabs e-chords go to top tab

share