Stone Sour

St Marie

Stone Sour

tabs

by  AMAN_CLAUDINO

save to print version add songbook text version e-mail correct tuner
chordsukulelecavacokeyboardtabbassdrumsharmonicaflute Guitar Pro
close

there isn't a video lesson for this song

chords

St Marie

	  		
verse 1 (0:00 - 0:27) 

Guitar 1 (Acoustic) (0:00 - 0:27) 

     v    v    v    v    v    v    v    v  v  v  v     v  v ^  v    v  v ^  v    v  v ^  v    v  v ^ 
Eb|--3----2----3----0----0----3----0----2--2--3--3--|--3--3-3--2----2--2-2--3----3--3-3--0----0--0-0---| 
Bb|--3----3----3----0----1----3----1----3--3--3--3--|--3--3-3--3----3--3-3--3----3--3-3--0----0--0-0---| 
Gb|--0----2----0----0----0----0----2----2--2--2--0--|--0--0-0--2----2--2-2--0----0--0-0--0----0--0-0---| 
Db|--0----0----0----2----2----0----2----0--0--0--0--|--0--0-0--0----0--0-0--0----0--0-0--2----2--2-2---| 
Ab|--2---------2----2----3----2----0-------------2--|--2--2-2---------------2----2--2-2--2----2--2-2---| 
Eb|--3---------3----0---------3------------------3--|--3--3-3---------------3----3--3-3--0----0--0-0---| 

     v    v  v ^  v    v  v ^     v    v  v ^  v    v  v ^ 
Eb|--0----0--0-0--3----3--3-3--|--0----0--0-0--2----2--2-2---| 
Bb|--1----1--1-1--3----3--3-3--|--1----1--1-1--3----3--3-3---| 
Gb|--0----0--0-0--0----0--0-0--|--2----2--2-2--2----2--2-2---| 
Db|--2----2--2-2--0----0--0-0--|--2----2--2-2--0----0--0-0---| 
Ab|--3----3--3-3--2----2--2-2--|--0----0--0-0----------------| 
Eb|---------------3----3--3-3--|-----------------------------| 


Guitar 2 (Clean with Slide) (0:07 - 0:27) 

Eb|--22--\17------|----14--12----------------| 
Bb|---------------|------------15--12--------| 
Gb|---------------|--------------------12----| 
Db|---------------|--------------------------| 
Ab|---------------|--------------------------| 
Eb|---------------|--------------------------| 


Guitar 3 (Fingerpicked Acoustic) (0:14 - 0:27) 

Eb|-------------------0----------------------|---0--------0-----------------------0-----0--3--2------2-------| 
Bb|--0-----0--1--3------3------0-----0--1--0-|-----0------1-----1--3--1-----1--3--1-----1--3--3--3-----3-----| 
Gb|--0-----0--2--2--------2----0-----0--2--0-|-------0----0--0--0--0--2-----2--0--2-----2--0--2----2-----2---| 
Db|--0-----0--0--0----------0--0-----0--0--2-|---------2--------------------------------------0------------0-| 
Ab|------------------------------------------|------------3-----3--3--0--0--0--3--0--0--0--0-----------------| 
Eb|--3--3--3--3--3--3----------3--3--3--3--0-|-0-------------------------------------------------------------| 


Pre-Chorus 1 (0:28 - 0:55) 

Guitar 1 (Acoustic) (0:28 - 0:55) 

     v  v ^ v ^ v ^ v ^ v ^ v ^     v  v ^ v ^ v ^ v ^ v ^ v ^     v  v ^ v ^ v ^ v ^ v ^ v ^ 
Eb|--0--0-0-0-0-0-0-0-0-0-0-0-0--|--3--3-3-3-3-3-3-3-3-3-3-3-3--|--0--0-0-0-0-0-0-0-0-0-0-0-0--| 
Bb|--0--0-0-0-0-0-0-0-0-0-0-0-0--|--3--3-3-3-3-3-3-3-3-3-3-3-3--|--1--1-1-1-1-1-1-1-1-1-1-1-1--| 
Gb|--0--0-0-0-0-0-0-0-0-0-0-0-0--|--0--0-0-0-0-0-0-0-0-0-0-0-0--|--0--0-0-0-0-0-0-0-0-0-0-0-0--| 
Db|--2--2-2-2-2-2-2-2-2-2-2-2-2--|--0--0-0-0-0-0-0-0-0-0-0-0-0--|--2--2-2-2-2-2-2-2-2-2-2-2-2--| 
Ab|--2--2-2-2-2-2-2-2-2-2-2-2-2--|--2--2-2-2-2-2-2-2-2-2-2-2-2--|--3--3-3-3-3-3-3-3-3-3-3-3-3--| 
Eb|--0--0-0-0-0-0-0-0-0-0-0-0-0--|--3--3-3-3-3-3-3-3-3-3-3-3-3--|------------------------------| 

     v  v ^ v ^  v  v ^ v ^     v  v ^ v ^ v ^ v ^ v ^ v ^     v  v ^ v ^ v ^ v ^ v ^ v ^ 
Eb|--3--3-3-3-3--2--2-2-2-2--|--0--0-0-0-0-0-0-0-0-0-0-0-0--|--3--3-3-3-3-3-3-3-3-3-3-3-3--| 
Bb|--3--3-3-3-3--3--3-3-3-3--|--0--0-0-0-0-0-0-0-0-0-0-0-0--|--3--3-3-3-3-3-3-3-3-3-3-3-3--| 
Gb|--0--0-0-0-0--2--2-2-2-2--|--0--0-0-0-0-0-0-0-0-0-0-0-0--|--0--0-0-0-0-0-0-0-0-0-0-0-0--| 
Db|--0--0-0-0-0--0--0-0-0-0--|--2--2-2-2-2-2-2-2-2-2-2-2-2--|--0--0-0-0-0-0-0-0-0-0-0-0-0--| 
Ab|--2--2-2-2-2--------------|--2--2-2-2-2-2-2-2-2-2-2-2-2--|--2--2-2-2-2-2-2-2-2-2-2-2-2--| 
Eb|--3--3-3-3-3--------------|--0--0-0-0-0-0-0-0-0-0-0-0-0--|--3--3-3-3-3-3-3-3-3-3-3-3-3--| 

     v  v ^ v ^ v ^ v ^ v ^ v ^     v  v ^ v ^ v ^ v ^ v ^ v ^ 
Eb|--0--0-0-0-0-0-0-0-0-0-0-0-0--|--2--2-2-2-2-2-2-2-2-2-2-2-2--| 
Bb|--1--1-1-1-1-1-1-1-1-1-1-1-1--|--3--3-3-3-3-3-3-3-3-3-3-3-3--| 
Gb|--0--0-0-0-0-0-0-0-0-0-0-0-0--|--2--2-2-2-2-2-2-2-2-2-2-2-2--| 
Db|--2--2-2-2-2-2-2-2-2-2-2-2-2--|--0--0-0-0-0-0-0-0-0-0-0-0-0--| 
Ab|--3--3-3-3-3-3-3-3-3-3-3-3-3--|------------------------------| 
Eb|------------------------------|------------------------------| 

Guitar 2 (Clean with Slide) (0:33 - 0:55) 

Eb|--19--17--15-----------|----14--12----------------|----19--17--15------------------------| 
Bb|----------------15/17--|------------15--12--------|----------------15/17----17/19--20----| 
Gb|-----------------------|--------------------12----|--------------------------------------| 
Db|-----------------------|--------------------------|--------------------------------------| 
Ab|-----------------------|--------------------------|--------------------------------------| 
Eb|-----------------------|--------------------------|--------------------------------------| 

Guitar 3 (Fingerpicked Acoustic) (0:28 - 0:55) 

Eb|--10-----------8-----------7-----------|-8-----------7-----------5-----------3-----------0-----0-----0----| 
Bb|------0-----0-----0-----0-----0-----0--|----0-----0-----0-----0-----0-----0-----0-----0--1-----1-----1----| 
Gb|---------0-----0-----0-----0-----0-----|-0-----0-----0-----0-----0-----0-----0-----0-----0--0-----0-----0-| 
Db|---------------------------------------|------------------------------------------------------------------| 
Ab|---------------------------------------|-------------------------------------------------3----------------| 
Eb|---0-----------------------------------|------------------------------------------------------------------| 

Eb|--0-3------------2----2----0----|-10-----------8-----------7-----------8-----------7-----------5----------| 
Bb|-------0----0-3--3------3--3----|-----0-----0-----0-----0-----0-----0-----0-----0-----0-----0-----0-----0-| 
Gb|-------0---------2---------2----|--------0-----0-----0-----0-----0-----0-----0-----0-----0-----0-----0----| 
Db|-----------------0--0------0--0-|-------------------------------------------------------------------------| 
Ab|-------0--0---------------------|-------------------------------------------------------------------------| 
Eb|--------------------------------|--0----------------------------------------------------------------------| 

Eb|--3-----------0--------0-------0-------0---3---|--2--------2--------5-------5--------| 
Bb|-----0-----0--1--1-------1-------1-------------|--3--3-------3--------3-------3------| 
Gb|--0-----0-----0----0-------0-------0-----------|--2----2-------2--------2-------2----| 
Db|-----------------------------------------------|--0------0-------0--------0-------0--| 
Ab|--------------3------3-------3-------3---3---3-|-------------------------------------| 
Eb|-----------------------------------------------|-------------------------------------| 

Chorus 1 (0:56 - 1:22) 

Guitar 1 (Acoustic) (0:56 - 1:22) 

     v  v ^  v  v ^  v  v ^ v ^ v ^     v  v ^ v ^ v ^  v  v ^ v ^ v ^     v  v ^ v ^ v ^ v ^ v ^ v ^ 
Eb|--0--0-0--2--2-2--3--3-3-3-3-3-3--|--0--0-0-0-0-0-0--0--0-0-0-0-0-0--|--3--3-3-3-3-3-3-3-3-3-3-3-3--| 
Bb|--0--0-0--3--3-3--3--3-3-3-3-3-3--|--1--1-1-1-1-1-1--1--1-1-1-1-1-1--|--3--3-3-3-3-3-3-3-3-3-3-3-3--| 
Gb|--0--0-0--2--2-2--0--0-0-0-0-0-0--|--2--2-2-2-2-2-2--0--0-0-0-0-0-0--|--0--0-0-0-0-0-0-0-0-0-0-0-0--| 
Db|--2--2-2--0--0-0--0--0-0-0-0-0-0--|--2--2-2-2-2-2-2--2--2-2-2-2-2-2--|--0--0-0-0-0-0-0-0-0-0-0-0-0--| 
Ab|--2--2-2--x--x-x--2--2-2-2-2-2-2--|--0--0-0-0-0-0-0--3--3-3-3-3-3-3--|--2--2-2-2-2-2-2-2-2-2-2-2-2--| 
Eb|--0--0-0--2--2-2--3--3-3-3-3-3-3--|----------------------------------|--3--3-3-3-3-3-3-3-3-3-3-3-3--| 

     v  v ^ v ^ v ^  v  v ^ v ^ v ^     v  v ^  v  v ^  v  v ^ v ^ v ^     v  v ^ v ^ v ^  v  v ^ v ^ v ^ 
Eb|--0--0-0-0-0-0-0--2--2-2-2-2-2-2--|--0--0-0--2--2-2--3--3-3-3-3-3-3--|--0--0-0-0-0-0-0--0--0-0-0-0-0-0--| 
Bb|--1--1-1-1-1-1-1--3--3-3-3-3-3-3--|--0--0-0--3--3-3--3--3-3-3-3-3-3--|--1--1-1-1-1-1-1--0--0-0-0-0-0-0--| 
Gb|--2--2-2-2-2-2-2--2--2-2-2-2-2-2--|--0--0-0--2--2-2--0--0-0-0-0-0-0--|--2--2-2-2-2-2-2--0--0-0-0-0-0-0--| 
Db|--2--2-2-2-2-2-2--0--0-0-0-0-0-0--|--2--2-2--0--0-0--0--0-0-0-0-0-0--|--2--2-2-2-2-2-2--2--2-2-2-2-2-2--| 
Ab|--0--0-0-0-0-0-0------------------|--2--2-2--x--x-x--2--2-2-2-2-2-2--|--0--0-0-0-0-0-0--2--2-2-2-2-2-2--| 
Eb|----------------------------------|--0--0-0--2--2-2--3--3-3-3-3-3-3--|------------------0--0-0-0-0-0-0--| 

     v  v ^ v ^ v ^  v  v ^ v ^ v ^     v  v ^ v ^ v ^ v ^ v ^ v ^ v ^ 
Eb|--0--0-0-0-0-0-0--2--2-2-2-2-2-2--|--3--3-3-3-3-3-3-3-3-3-3-3-3-3-3--| 
Bb|--1--1-1-1-1-1-1--3--3-3-3-3-3-3--|--3--3-3-3-3-3-3-3-3-3-3-3-3-3-3--| 
Gb|--0--0-0-0-0-0-0--2--2-2-2-2-2-2--|--0--0-0-0-0-0-0-0-0-0-0-0-0-0-0--| 
Db|--2--2-2-2-2-2-2--0--0-0-0-0-0-0--|--0--0-0-0-0-0-0-0-0-0-0-0-0-0-0--| 
Ab|--3--3-3-3-3-3-3------------------|--2--2-2-2-2-2-2-2-2-2-2-2-2-2-2--| 
Eb|----------------------------------|--3--3-3-3-3-3-3-3-3-3-3-3-3-3-3--| 

Guitar 2 (Clean with Slide) (1:02 - 1:22) 

Eb|--18\17-----------------------------|--------------22--\20/22-------19+----| 
Bb|---------------17\15--15\13--13/15--|----20--\15--------------------19+----| 
Gb|------------------------------------|--------------------------------------| 
Db|------------------------------------|--------------------------------------| 
Ab|------------------------------------|--------------------------------------| 
Eb|------------------------------------|--------------------------------------| 

Guitar 3 (Fingerpicked Acoustic) (0:56 - 1:22) 

Eb|--0-----2-----3------------------0--3---------3p0------|--------------------------------0--3--2-----0-----| 
Bb|--0-----3-----3-----0--1--1------------3----------3----|--0-----0-----0-----0--3--1-----3--3--3-----3--3--| 
Gb|--0--0--2--2--0--0--0-----2--2---------0--0---------0--|--0--0--0--0--0--0--0--0--0-----2--0--2--2--2-----| 
Db|--------0-----------------2----2-------2----0----------|--------------------------------0--0--0-----0-----| 
Ab|--------------------------0------0--0--3---------------|--3-----3-----3-----3--3--3--3--------------------| 
Eb|--0-----------3-----3----------------------------------|--------------------------------------------------| 

Eb|--0-----2-----3---------------0-3-0-----0----|--0-----0-3--2-----0-----3----| 
Bb|--0-----3-----3-----0-3--1--------0-------0--|--1----------3-----3--3--3----| 
Gb|--0--0--2--2--0--0-------0--------0-0--------|--0--0-------2--2--2-----0----| 
Db|--------0------------------------------------|-------------0-----0-----0----| 
Ab|-------------------------3--3----------------|--3---------------------------| 
Eb|--0-----------3-------------------0---0------|-------------------------3----| 

verse 2 (1:23 - 1:50) 

Guitar 1 (Acoustic) (1:23 - 1:50) 

     v  v ^ v ^ v ^ v ^ v ^ v ^     v  v ^ v ^ v ^ v ^ v ^ v ^     v  v ^ v ^ v ^ v ^ v ^ v ^ 
Eb|--0--0-0-0-0-0-0-0-0-0-0-0-0--|--3--3-3-3-3-3-3-3-3-3-3-3-3--|--0--0-0-0-0-0-0-0-0-0-0-0-0--| 
Bb|--1--1-1-1-1-1-1-1-1-1-1-1-1--|--3--3-3-3-3-3-3-3-3-3-3-3-3--|--1--1-1-1-1-1-1-1-1-1-1-1-1--| 
Gb|--0--0-0-0-0-0-0-0-0-0-0-0-0--|--0--0-0-0-0-0-0-0-0-0-0-0-0--|--2--2-2-2-2-2-2-2-2-2-2-2-2--| 
Db|--2--2-2-2-2-2-2-2-2-2-2-2-2--|--0--0-0-0-0-0-0-0-0-0-0-0-0--|--2--2-2-2-2-2-2-2-2-2-2-2-2--| 
Ab|--3--3-3-3-3-3-3-3-3-3-3-3-3--|--2--2-2-2-2-2-2-2-2-2-2-2-2--|--0--0-0-0-0-0-0-0-0-0-0-0-0--| 
Eb|------------------------------|--3--3-3-3-3-3-3-3-3-3-3-3-3--|------------------------------| 

     v  v ^ v ^ v ^ v ^ v ^ v ^     v  v ^ v ^ v ^ v ^ v ^ v ^     v  v ^ v ^ v ^ v ^ v ^ v ^ 
Eb|--2--2-2-2-2-2-2-2-2-2-2-2-2--|--0--0-0-0-0-0-0-0-0-0-0-0-0--|--3--3-3-3-3-3-3-3-3-3-3-3-3--| 
Bb|--3--3-3-3-3-3-3-3-3-3-3-3-3--|--1--1-1-1-1-1-1-1-1-1-1-1-1--|--3--3-3-3-3-3-3-3-3-3-3-3-3--| 
Gb|--2--2-2-2-2-2-2-2-2-2-2-2-2--|--0--0-0-0-0-0-0-0-0-0-0-0-0--|--0--0-0-0-0-0-0-0-0-0-0-0-0--| 
Db|--0--0-0-0-0-0-0-0-0-0-0-0-0--|--2--2-2-2-2-2-2-2-2-2-2-2-2--|--0--0-0-0-0-0-0-0-0-0-0-0-0--| 
Ab|------------------------------|--3--3-3-3-3-3-3-3-3-3-3-3-3--|--2--2-2-2-2-2-2-2-2-2-2-2-2--| 
Eb|------------------------------|------------------------------|--3--3-3-3-3-3-3-3-3-3-3-3-3--| 

     v  v ^ v ^ v ^ v ^ v ^ v ^     v  v ^ v ^  v  v ^ v ^ 
Eb|--0--0-0-0-0-0-0-0-0-0-0-0-0--|--0--0-0-0-0--2--2-2-2-2--| 
Bb|--0--0-0-0-0-0-0-0-0-0-0-0-0--|--1--1-1-1-1--3--3-3-3-3--| 
Gb|--0--0-0-0-0-0-0-0-0-0-0-0-0--|--0--0-0-0-0--2--2-2-2-2--| 
Db|--2--2-2-2-2-2-2-2-2-2-2-2-2--|--2--2-2-2-2--0--0-0-0-0--| 
Ab|--2--2-2-2-2-2-2-2-2-2-2-2-2--|--3--3-3-3-3--------------| 
Eb|--0--0-0-0-0-0-0-0-0-0-0-0-0--|--------------------------| 

Guitar 2 (Clean with Slide) (1:36 - 1:50) 

Eb|-------------------|--------------------------14--12----------------| 
Bb|-------------------|------5-----5-/7---7-/8-----------15--12--------| 
Gb|----5-----/7-------|------5-----5-/7---7----------------------12----| 
Db|----5-----/7-------|------------------------------------------------| 
Ab|-------------------|------------------------------------------------| 
Eb|-------------------|------------------------------------------------| 

Guitar 3 (Fingerpicked Acoustic) (1:23 - 1:50) 

Eb|--0-----0-----0-----0--2--3--------3-------3-------3--------|--5--------5-------5-------5---8---| 
Bb|--1-----1-----1-----1-----3--3-------3-------3-------3------|--5--5-------5-------5-------------| 
Gb|--0--0-----0-----0--------0----0-------0-------0-------0----|--5----5-------5-------5-----------| 
Db|--------------------------0------0-------0-------0-------0--|--7------7-------7-------7---7---7-| 
Ab|--3---------------------------------------------------------|-----------------------------------| 
Eb|--------------------------3---------------------------------|-----------------------------------| 

Eb|--2--------2-------2-------2---5---|--3--------3-------3-------3--------3-------3------3------3--------| 
Bb|--3--3-------3-------3-------------|--3--3-------3-------3-------3------3--3------3------3------3------| 
Gb|--2----2-------2-------2-----------|--0----0-------0-------0-------0----0----0------0------0------0----| 
Db|--0------0-------0-------0---0---0-|---------2-------2-------2-------2--0------0------0------0------0--| 
Ab|-----------------------------------|--3----------------------------------------------------------------| 
Eb|-----------------------------------|------------------------------------3------------------------------| 

Eb|--0--------0-------2-------3-------|--0--------0-------2-------2--------| 
Bb|--0--0-------0-------0-------0-----|--3--3-------3-------3-------3------| 
Gb|--0----0-------0-------0-------0---|--2----2-------2-------2-------2----| 
Db|---------2-------2-------2-------2-|--0------0-------0-------0-------0--| 
Ab|-----------------------------------|------------------------------------| 
Eb|--0--------------------------------|------------------------------------| 

PreChorus 2 (1:50 - 2:17) 

Guitar 1 (Acoustic) (1:50 - 2:17) 

     v  v ^ v ^ v ^ v ^ v ^ v ^     v  v ^ v ^ v ^ v ^ v ^ v ^     v  v ^ v ^ v ^ v ^ v ^ v ^ 
Eb|--0--0-0-0-0-0-0-0-0-0-0-0-0--|--3--3-3-3-3-3-3-3-3-3-3-3-3--|--0--0-0-0-0-0-0-0-0-0-0-0-0--| 
Bb|--0--0-0-0-0-0-0-0-0-0-0-0-0--|--3--3-3-3-3-3-3-3-3-3-3-3-3--|--1--1-1-1-1-1-1-1-1-1-1-1-1--| 
Gb|--0--0-0-0-0-0-0-0-0-0-0-0-0--|--0--0-0-0-0-0-0-0-0-0-0-0-0--|--0--0-0-0-0-0-0-0-0-0-0-0-0--| 
Db|--2--2-2-2-2-2-2-2-2-2-2-2-2--|--0--0-0-0-0-0-0-0-0-0-0-0-0--|--2--2-2-2-2-2-2-2-2-2-2-2-2--| 
Ab|--2--2-2-2-2-2-2-2-2-2-2-2-2--|--2--2-2-2-2-2-2-2-2-2-2-2-2--|--3--3-3-3-3-3-3-3-3-3-3-3-3--| 
Eb|--0--0-0-0-0-0-0-0-0-0-0-0-0--|--3--3-3-3-3-3-3-3-3-3-3-3-3--|------------------------------| 

     v  v ^ v ^  v  v ^ v ^     v  v ^ v ^ v ^ v ^ v ^ v ^     v  v ^ v ^ v ^ v ^ v ^ v ^ 
Eb|--3--3-3-3-3--2--2-2-2-2--|--0--0-0-0-0-0-0-0-0-0-0-0-0--|--3--3-3-3-3-3-3-3-3-3-3-3-3--| 
Bb|--3--3-3-3-3--3--3-3-3-3--|--0--0-0-0-0-0-0-0-0-0-0-0-0--|--3--3-3-3-3-3-3-3-3-3-3-3-3--| 
Gb|--0--0-0-0-0--2--2-2-2-2--|--0--0-0-0-0-0-0-0-0-0-0-0-0--|--0--0-0-0-0-0-0-0-0-0-0-0-0--| 
Db|--0--0-0-0-0--0--0-0-0-0--|--2--2-2-2-2-2-2-2-2-2-2-2-2--|--0--0-0-0-0-0-0-0-0-0-0-0-0--| 
Ab|--2--2-2-2-2--------------|--2--2-2-2-2-2-2-2-2-2-2-2-2--|--2--2-2-2-2-2-2-2-2-2-2-2-2--| 
Eb|--3--3-3-3-3--------------|--0--0-0-0-0-0-0-0-0-0-0-0-0--|--3--3-3-3-3-3-3-3-3-3-3-3-3--| 

     v  v ^ v ^ v ^ v ^ v ^ v ^     v  v ^ v ^ v ^ v ^ v ^ v ^ 
Eb|--0--0-0-0-0-0-0-0-0-0-0-0-0--|--2--2-2-2-2-2-2-2-2-2-2-2-2--| 
Bb|--1--1-1-1-1-1-1-1-1-1-1-1-1--|--3--3-3-3-3-3-3-3-3-3-3-3-3--| 
Gb|--0--0-0-0-0-0-0-0-0-0-0-0-0--|--2--2-2-2-2-2-2-2-2-2-2-2-2--| 
Db|--2--2-2-2-2-2-2-2-2-2-2-2-2--|--0--0-0-0-0-0-0-0-0-0-0-0-0--| 
Ab|--3--3-3-3-3-3-3-3-3-3-3-3-3--|------------------------------| 
Eb|------------------------------|------------------------------| 

Guitar 2 (Clean with Slide) (1:52 - 2:17) 

Eb|------------------|--19--17--15------------------|--14--12--------------19--17--15---------------22/15--| 
Bb|--15----12----13--|--------------15/17----17\15--|----------15--12------------------15/17-17/18---------| 
Gb|------------------|------------------------------|-----------------12-----------------------------------| 
Db|------------------|------------------------------|------------------------------------------------------| 
Ab|------------------|------------------------------|------------------------------------------------------| 
Eb|------------------|------------------------------|------------------------------------------------------| 

Guitar 3 (Fingerpicked Acoustic) (1:50 - 2:17) 

Eb|--10-----------8-----------7-----------|-8-----------7-----------5-----------3-----------0-----0-----0----| 
Bb|------0-----0-----0-----0-----0-----0--|----0-----0-----0-----0-----0-----0-----0-----0--1-----1-----1----| 
Gb|---------0-----0-----0-----0-----0-----|-0-----0-----0-----0-----0-----0-----0-----0-----0--0-----0-----0-| 
Db|---------------------------------------|------------------------------------------------------------------| 
Ab|---------------------------------------|-------------------------------------------------3----------------| 
Eb|---0-----------------------------------|------------------------------------------------------------------| 

Eb|--0-3------------2----2----0----|-10-----------8-----------7-----------8-----------7-----------5----------| 
Bb|-------0----0-3--3------3--3----|-----0-----0-----0-----0-----0-----0-----0-----0-----0-----0-----0-----0-| 
Gb|-------0---------2---------2----|--------0-----0-----0-----0-----0-----0-----0-----0-----0-----0-----0----| 
Db|-----------------0--0------0--0-|-------------------------------------------------------------------------| 
Ab|-------0--0---------------------|-------------------------------------------------------------------------| 
Eb|--------------------------------|--0----------------------------------------------------------------------| 

Eb|--3-----------0--------0-------0-------0---3---|--2--------2--------2-------2--------| 
Bb|-----0-----0--1--1-------1-------1-------------|--3--3-------3--------3-------3------| 
Gb|--0-----0-----0----0-------0-------0-----------|--2----2-------2--------2-------2----| 
Db|-----------------------------------------------|--0------0-------0--------0-------0--| 
Ab|--------------3------3-------3-------3---3---3-|-------------------------------------| 
Eb|-----------------------------------------------|-------------------------------------| 

Chorus 2 (2:18 - 2:45) 

Guitar 1 (Acoustic) (2:18 - 2:45) 

     v  v ^  v  v ^  v  v ^ v ^ v ^     v  v ^ v ^ v ^  v  v ^ v ^ v ^     v  v ^ v ^ v ^ v ^ v ^ v ^ 
Eb|--0--0-0--2--2-2--3--3-3-3-3-3-3--|--0--0-0-0-0-0-0--0--0-0-0-0-0-0--|--3--3-3-3-3-3-3-3-3-3-3-3-3--| 
Bb|--0--0-0--3--3-3--3--3-3-3-3-3-3--|--1--1-1-1-1-1-1--1--1-1-1-1-1-1--|--3--3-3-3-3-3-3-3-3-3-3-3-3--| 
Gb|--0--0-0--2--2-2--0--0-0-0-0-0-0--|--2--2-2-2-2-2-2--0--0-0-0-0-0-0--|--0--0-0-0-0-0-0-0-0-0-0-0-0--| 
Db|--2--2-2--0--0-0--0--0-0-0-0-0-0--|--2--2-2-2-2-2-2--2--2-2-2-2-2-2--|--0--0-0-0-0-0-0-0-0-0-0-0-0--| 
Ab|--2--2-2--x--x-x--2--2-2-2-2-2-2--|--0--0-0-0-0-0-0--3--3-3-3-3-3-3--|--2--2-2-2-2-2-2-2-2-2-2-2-2--| 
Eb|--0--0-0--2--2-2--3--3-3-3-3-3-3--|----------------------------------|--3--3-3-3-3-3-3-3-3-3-3-3-3--| 

     v  v ^ v ^ v ^  v  v ^ v ^ v ^     v  v ^  v  v ^  v  v ^ v ^ v ^     v  v ^ v ^ v ^  v  v ^ v ^ v ^ 
Eb|--0--0-0-0-0-0-0--2--2-2-2-2-2-2--|--0--0-0--2--2-2--3--3-3-3-3-3-3--|--0--0-0-0-0-0-0--0--0-0-0-0-0-0--| 
Bb|--1--1-1-1-1-1-1--3--3-3-3-3-3-3--|--0--0-0--3--3-3--3--3-3-3-3-3-3--|--1--1-1-1-1-1-1--0--0-0-0-0-0-0--| 
Gb|--2--2-2-2-2-2-2--2--2-2-2-2-2-2--|--0--0-0--2--2-2--0--0-0-0-0-0-0--|--2--2-2-2-2-2-2--0--0-0-0-0-0-0--| 
Db|--2--2-2-2-2-2-2--0--0-0-0-0-0-0--|--2--2-2--0--0-0--0--0-0-0-0-0-0--|--2--2-2-2-2-2-2--2--2-2-2-2-2-2--| 
Ab|--0--0-0-0-0-0-0------------------|--2--2-2--x--x-x--2--2-2-2-2-2-2--|--0--0-0-0-0-0-0--2--2-2-2-2-2-2--| 
Eb|----------------------------------|--0--0-0--2--2-2--3--3-3-3-3-3-3--|------------------0--0-0-0-0-0-0--| 

     v  v ^ v ^ v ^  v  v ^ v ^ v ^     v  v ^ v ^ v ^ v ^ v ^ v ^ v ^ 
Eb|--0--0-0-0-0-0-0--2--2-2-2-2-2-2--|--3--3-3-3-3-3-3-3-3-3-3-3-3-3-3--| 
Bb|--1--1-1-1-1-1-1--3--3-3-3-3-3-3--|--3--3-3-3-3-3-3-3-3-3-3-3-3-3-3--| 
Gb|--0--0-0-0-0-0-0--2--2-2-2-2-2-2--|--0--0-0-0-0-0-0-0-0-0-0-0-0-0-0--| 
Db|--2--2-2-2-2-2-2--0--0-0-0-0-0-0--|--0--0-0-0-0-0-0-0-0-0-0-0-0-0-0--| 
Ab|--3--3-3-3-3-3-3------------------|--2--2-2-2-2-2-2-2-2-2-2-2-2-2-2--| 
Eb|----------------------------------|--3--3-3-3-3-3-3-3-3-3-3-3-3-3-3--| 

Guitar 2 (Clean with Slide) (2:27 - 2:45) 

Eb|-----------------------15--\12------|------------22-------/19-------/15----| 
Bb|--13/15\13--------------------------|---15/17-19---------------------------| 
Gb|------------------------------------|--------------------------------------| 
Db|------------------------------------|--------------------------------------| 
Ab|------------------------------------|--------------------------------------| 
Eb|------------------------------------|--------------------------------------| 

Guitar 3 (Fingerpicked Acoustic) (2:18 - 2:45) 

Eb|--0-----2-----3------------------0--3---------3p0------|--------------------------------0--3--2-----0-----| 
Bb|--0-----3-----3-----0--1--1------------3----------3----|--0-----0-----0-----0--3--1-----3--3--3-----3--3--| 
Gb|--0--0--2--2--0--0--0-----2--2---------0--0---------0--|--0--0--0--0--0--0--0--0--0-----2--0--2--2--2-----| 
Db|--------0-----------------2----2-------2----0----------|--------------------------------0--0--0-----0-----| 
Ab|--------------------------0------0--0--3---------------|--3-----3-----3-----3--3--3--3--------------------| 
Eb|--0-----------3-----3----------------------------------|--------------------------------------------------| 

Eb|--0-----2-----3---------------0-3-0-----0----|--0-----0--3--2-----2--5-----------------------------------| 
Bb|--0-----3-----3-----0-3--1--------0-------0--|--1-----1--1--3-----3--3--0-------0-------0-------0--------| 
Gb|--0--0--2--2--0--0-------0--------0-0--------|--0--0--0--0--2--2--2--2----0-------0-------0-------0------| 
Db|--------0------------------------------------|--------------0-----0--0------0-------0-------0-------0----| 
Ab|-------------------------3--3----------------|--3-----3--3-----------------------------------------------| 
Eb|--0-----------3-------------------0---0------|--------------------------------3-------3-------3-------3--| 

Bridge (2:45 - 3:12) 

Guitar 1 (Acoustic) (2:45 - 3:12) 

     v  v ^ v ^ v ^ v ^ v ^ v ^     v  v ^ v ^ v ^ v ^ v ^ v ^     v  v ^ v ^ v ^ v ^ v ^ v ^ 
Eb|--2--2-2-2-2-2-2-2-2-2-2-2-2--|--0--0-0-0-0-0-0-0-0-0-0-0-0--|--2--2-2-2-2-2-2-2-2-2-2-2-2--| 
Bb|--3--3-3-3-3-3-3-3-3-3-3-3-3--|--1--1-1-1-1-1-1-1-1-1-1-1-1--|--3--3-3-3-3-3-3-3-3-3-3-3-3--| 
Gb|--2--2-2-2-2-2-2-2-2-2-2-2-2--|--0--0-0-0-0-0-0-0-0-0-0-0-0--|--2--2-2-2-2-2-2-2-2-2-2-2-2--| 
Db|--0--0-0-0-0-0-0-0-0-0-0-0-0--|--2--2-2-2-2-2-2-2-2-2-2-2-2--|--0--0-0-0-0-0-0-0-0-0-0-0-0--| 
Ab|------------------------------|--3--3-3-3-3-3-3-3-3-3-3-3-3--|------------------------------| 
Eb|------------------------------|------------------------------|------------------------------| 

     v  v ^ v ^ v ^ v ^ v ^ v ^     v  v ^ v ^ v ^ v ^ v ^ v ^     v  v ^ v ^ v ^ v ^ v ^ v ^ 
Eb|--0--0-0-0-0-0-0-0-0-0-0-0-0--|--2--2-2-2-2-2-2-2-2-2-2-2-2--|--0--0-0-0-0-0-0-0-0-0-0-0-0--| 
Bb|--1--1-1-1-1-1-1-1-1-1-1-1-1--|--3--3-3-3-3-3-3-3-3-3-3-3-3--|--1--1-1-1-1-1-1-1-1-1-1-1-1--| 
Gb|--0--0-0-0-0-0-0-0-0-0-0-0-0--|--2--2-2-2-2-2-2-2-2-2-2-2-2--|--0--0-0-0-0-0-0-0-0-0-0-0-0--| 
Db|--2--2-2-2-2-2-2-2-2-2-2-2-2--|--0--0-0-0-0-0-0-0-0-0-0-0-0--|--2--2-2-2-2-2-2-2-2-2-2-2-2--| 
Ab|--3--3-3-3-3-3-3-3-3-3-3-3-3--|------------------------------|--3--3-3-3-3-3-3-3-3-3-3-3-3--| 
Eb|------------------------------|------------------------------|------------------------------| 

     v  v ^ v ^ v ^ v ^ v ^ v ^     v  v ^ v ^  v  v ^ v ^ 
Eb|--0--0-0-0-0-0-0-0-0-0-0-0-0--|--0--0-0-0-0--2--2-2-2-2--| 
Bb|--1--1-1-1-1-1-1-1-1-1-1-1-1--|--1--1-1-1-1--3--3-3-3-3--| 
Gb|--2--2-2-2-2-2-2-2-2-2-2-2-2--|--0--0-0-0-0--2--2-2-2-2--| 
Db|--2--2-2-2-2-2-2-2-2-2-2-2-2--|--2--2-2-2-2--0--0-0-0-0--| 
Ab|--0--0-0-0-0-0-0-0-0-0-0-0-0--|--3--3-3-3-3--------------| 
Eb|------------------------------|--------------------------| 

Guitar 2 (Clean with Slide) (2:47 - 3:12) 

Eb|-----------------------14\12------|-------------------------------------| 
Bb|--17--\15--------------------15---|------------------/13----13----13----| 
Gb|----------------------------------|---17\16\14/16-----------------------| 
Db|----------------------------------|-------------------------------------| 
Ab|----------------------------------|-------------------------------------| 
Eb|----------------------------------|-------------------------------------| 

Guitar 3 (Fingerpicked Acoustic) (2:45 - 3:12) 

Eb|----------------------------------|-------------------------------|----------------------------------| 
Bb|--10------10------10------12------|---8------8------7------7------|--10------10------12p10-----------| 
Gb|--11------11------11------11------|---9------9------9------9------|--11------11------11-------11-----| 
Db|--12--12------12------12------12--|--10--10-----10-----10-----10--|--12--12------12--12----12----12--| 
Ab|----------------------------------|-------------------------------|----------------------------------| 
Eb|----------------------------------|-------------------------------|----------------------------------| 

Eb|-------------------------------|----------------------------------|-------------------------------| 
Bb|---8------8------7------7------|--10------10------10------10------|---8------8------7------7------| 
Gb|---9------9------9------9------|--11------11------11------11------|---9------9------9------9------| 
Db|--10--10-----10-----10-----10--|--12--12------12------12------12--|--10--10-----10-----10-----10--| 
Ab|-------------------------------|----------------------------------|-------------------------------| 
Eb|-------------------------------|----------------------------------|-------------------------------| 

Eb|--0-----------------0-3--|--0---------2-----0------| 
Bb|--1-----1-----1----------|--1----1-3--3-----3--3---| 
Gb|--2-----2-----2----------|--0---------2--2--2------| 
Db|--2-----2-----2----------|------------0-----0------| 
Ab|--0--0-----0-----0-------|--3--3-------------------| 
Eb|-------------------------|-------------------------| 

Solo (3:13 - 3:39) 

Guitar 1 (Acoustic) (3:13 - 3:39) 

     v  v ^ v ^ v ^ v ^ v ^ v ^     v  v ^ v ^ v ^ v ^ v ^ v ^     v  v ^ v ^ v ^ v ^ v ^ v ^   
Eb|--3--3-3-3-3-3-3-3-3-3-3-3-3--|--0--0-0-0-0-0-0-0-0-0-0-0-0--|--3--3-3-3-3-3-3-3-3-3-3-3-3--| 
Bb|--3--3-3-3-3-3-3-3-3-3-3-3-3--|--1--1-1-1-1-1-1-1-1-1-1-1-1--|--3--3-3-3-3-3-3-3-3-3-3-3-3--| 
Gb|--0--0-0-0-0-0-0-0-0-0-0-0-0--|--0--0-0-0-0-0-0-0-0-0-0-0-0--|--0--0-0-0-0-0-0-0-0-0-0-0-0--| 
Db|--0--0-0-0-0-0-0-0-0-0-0-0-0--|--2--2-2-2-2-2-2-2-2-2-2-2-2--|--0--0-0-0-0-0-0-0-0-0-0-0-0--| 
Ab|--2--2-2-2-2-2-2-2-2-2-2-2-2--|--3--3-3-3-3-3-3-3-3-3-3-3-3--|--2--2-2-2-2-2-2-2-2-2-2-2-2--| 
Eb|--3--3-3-3-3-3-3-3-3-3-3-3-3--|------------------------------|--3--3-3-3-3-3-3-3-3-3-3-3-3--| 

     v  v ^ v ^ v ^ v ^ v ^ v ^     v  v ^ v ^ v ^ v ^ v ^ v ^     v  v ^ v ^ v ^ v ^ v ^ v ^   
Eb|--2--2-2-2-2-2-2-2-2-2-2-2-2--|--0--0-0-0-0-0-0-0-0-0-0-0-0--|--3--3-3-3-3-3-3-3-3-3-3-3-3--| 
Bb|--3--3-3-3-3-3-3-3-3-3-3-3-3--|--0--0-0-0-0-0-0-0-0-0-0-0-0--|--3--3-3-3-3-3-3-3-3-3-3-3-3--| 
Gb|--2--2-2-2-2-2-2-2-2-2-2-2-2--|--0--0-0-0-0-0-0-0-0-0-0-0-0--|--0--0-0-0-0-0-0-0-0-0-0-0-0--| 
Db|--0--0-0-0-0-0-0-0-0-0-0-0-0--|--2--2-2-2-2-2-2-2-2-2-2-2-2--|--0--0-0-0-0-0-0-0-0-0-0-0-0--| 
Ab|------------------------------|--2--2-2-2-2-2-2-2-2-2-2-2-2--|--2--2-2-2-2-2-2-2-2-2-2-2-2--| 
Eb|------------------------------|--0--0-0-0-0-0-0-0-0-0-0-0-0--|--3--3-3-3-3-3-3-3-3-3-3-3-3--| 

     v  v ^ v ^ v ^ v ^ v ^ v ^     v  v ^ v ^ v ^ v ^ v ^ v ^    
Eb|--0--0-0-0-0-0-0-0-0-0-0-0-0--|--2--2-2-2-2-2-2-2-2-2-2-2-2--| 
Bb|--1--1-1-1-1-1-1-1-1-1-1-1-1--|--3--3-3-3-3-3-3-3-3-3-3-3-3--| 
Gb|--0--0-0-0-0-0-0-0-0-0-0-0-0--|--2--2-2-2-2-2-2-2-2-2-2-2-2--| 
Db|--2--2-2-2-2-2-2-2-2-2-2-2-2--|--0--0-0-0-0-0-0-0-0-0-0-0-0--| 
Ab|--3--3-3-3-3-3-3-3-3-3-3-3-3--|------------------------------| 
Eb|------------------------------|------------------------------| 

Guitar 2 (Clean with Slide) (3:13 - 3:39) (Solo) 

Eb|--/20-19-17-----20\19-17-------------|--------------------17-17---19-17-15-------------| 
Bb|------------20-----------20\--15/17--|--17-17-19-19-20-20---------20-------17--13/15---| 
Gb|------------------------------14/16--|----------------------------19-----------12/14---| 
Db|-------------------------------------|-------------------------------------------------| 
Ab|-------------------------------------|-------------------------------------------------| 
Eb|-------------------------------------|-------------------------------------------------| 

Eb|-------------------------------------------|--19--17--15----------19\17-19----------------| 
Bb|------15--17p15----------15\---13\---10\---|--------------17--15-----------15h17--15/17---| 
Gb|--16-------------16--14--16\---14\---11\---|--------------------------------------14/16---| 
Db|-------------------------------------------|----------------------------------------------| 
Ab|-------------------------------------------|----------------------------------------------| 
Eb|-------------------------------------------|----------------------------------------------| 

Eb|--20--19--17---------------------17-------|--------14-------12------10-----8-----7---| 
Bb|--------------20---20-----19h20------17---|------------------------------------------| 
Gb|-------------------19---------------------|--12/14----11/12----9/11----7/9---5/7-----| 
Db|------------------------------------------|------------------------------------------| 
Ab|------------------------------------------|------------------------------------------| 
Eb|------------------------------------------|------------------------------------------| 

Guitar 3 (Fingerpicked Acoustic) (3:13 - 3:39) 

Eb|-----------------------------------|--0--0--0--0--0--0--0--0--0------10~---| 
Bb|--1/5--3--1p0-1--/5-3--1p0---------|--5--5--5--7--7--7--7--8--8-/12--12~---| 
Gb|--2/5--4--2p0-2--/5-4--2p0---------|--x--x--x--x--x--x--x--x--x------------| 
Db|---------------------------2p0h2~--|--5--5--5--7--7--7--7--9--9------------| 
Ab|-----------------------------------|---------------------------------------| 
Eb|-----------------------------------|---------------------------------------| 

Eb|--10-10-10/12--10---8/10\-8--5~----7~----8~--|--19-17-15----15-19-17-15--15h17p15-------------| 
Bb|--12-12-12/13--12--10/12\10--7~----8~---10~--|-----------17-----------------------17-15--17~--| 
Gb|---------------------------------------------|-------------------------------------------16~--| 
Db|---------------------------------------------|------------------------------------------------| 
Ab|---------------------------------------------|------------------------------------------------| 
Eb|---------------------------------------------|------------------------------------------------| 

Eb|--15-15-15/17--15--14/15-14--12----14h15-/17b------|--------14-------12------10-----8-----7---| 
Bb|--17-17-17/19--17--15/17-15--13----------------17--|------------------------------------------| 
Gb|---------------------------------------------------|--12/14----11/12----9/11----7/9---5/7-----| 
Db|---------------------------------------------------|------------------------------------------| 
Ab|---------------------------------------------------|------------------------------------------| 
Eb|---------------------------------------------------|------------------------------------------| 

Chorus 3 (3:40 - 4:18) 

Guitar 1 (Acoustic) (3:40 - 4:18) 

     v  v ^  v  v ^  v  v ^ v ^ v ^     v  v ^ v ^ v ^  v  v ^ v ^ v ^     v  v ^ v ^ v ^ v ^ v ^ v ^ 
Eb|--0--0-0--2--2-2--3--3-3-3-3-3-3--|--0--0-0-0-0-0-0--0--0-0-0-0-0-0--|--3--3-3-3-3-3-3-3-3-3-3-3-3--| 
Bb|--0--0-0--3--3-3--3--3-3-3-3-3-3--|--1--1-1-1-1-1-1--1--1-1-1-1-1-1--|--3--3-3-3-3-3-3-3-3-3-3-3-3--| 
Gb|--0--0-0--2--2-2--0--0-0-0-0-0-0--|--2--2-2-2-2-2-2--0--0-0-0-0-0-0--|--0--0-0-0-0-0-0-0-0-0-0-0-0--| 
Db|--2--2-2--0--0-0--0--0-0-0-0-0-0--|--2--2-2-2-2-2-2--2--2-2-2-2-2-2--|--0--0-0-0-0-0-0-0-0-0-0-0-0--| 
Ab|--2--2-2--x--x-x--2--2-2-2-2-2-2--|--0--0-0-0-0-0-0--3--3-3-3-3-3-3--|--2--2-2-2-2-2-2-2-2-2-2-2-2--| 
Eb|--0--0-0--2--2-2--3--3-3-3-3-3-3--|----------------------------------|--3--3-3-3-3-3-3-3-3-3-3-3-3--| 

     v  v ^ v ^ v ^  v  v ^ v ^ v ^     v  v ^  v  v ^  v  v ^ v ^ v ^     v  v ^ v ^ v ^  v  v ^ v ^ v ^ 
Eb|--0--0-0-0-0-0-0--2--2-2-2-2-2-2--|--0--0-0--2--2-2--3--3-3-3-3-3-3--|--0--0-0-0-0-0-0--0--0-0-0-0-0-0--| 
Bb|--1--1-1-1-1-1-1--3--3-3-3-3-3-3--|--0--0-0--3--3-3--3--3-3-3-3-3-3--|--1--1-1-1-1-1-1--0--0-0-0-0-0-0--| 
Gb|--2--2-2-2-2-2-2--2--2-2-2-2-2-2--|--0--0-0--2--2-2--0--0-0-0-0-0-0--|--2--2-2-2-2-2-2--0--0-0-0-0-0-0--| 
Db|--2--2-2-2-2-2-2--0--0-0-0-0-0-0--|--2--2-2--0--0-0--0--0-0-0-0-0-0--|--2--2-2-2-2-2-2--2--2-2-2-2-2-2--| 
Ab|--0--0-0-0-0-0-0------------------|--2--2-2--x--x-x--2--2-2-2-2-2-2--|--0--0-0-0-0-0-0--2--2-2-2-2-2-2--| 
Eb|----------------------------------|--0--0-0--2--2-2--3--3-3-3-3-3-3--|------------------0--0-0-0-0-0-0--| 

     v  v ^ v ^ v ^  v  v ^ v ^ v ^     v  v ^ v ^ v ^ v ^ v ^ v ^ v ^     v  v ^ v ^ v ^  v  v ^ v ^ v ^   
Eb|--0--0-0-0-0-0-0--2--2-2-2-2-2-2--|--3--3-3-3-3-3-3-3-3-3-3-3-3-3-3--|--0--0-0-0-0-0-0--2--2-2-2-2-2-2--| 
Bb|--1--1-1-1-1-1-1--3--3-3-3-3-3-3--|--3--3-3-3-3-3-3-3-3-3-3-3-3-3-3--|--1--1-1-1-1-1-1--3--3-3-3-3-3-3--| 
Gb|--0--0-0-0-0-0-0--2--2-2-2-2-2-2--|--0--0-0-0-0-0-0-0-0-0-0-0-0-0-0--|--0--0-0-0-0-0-0--2--2-2-2-2-2-2--| 
Db|--2--2-2-2-2-2-2--0--0-0-0-0-0-0--|--0--0-0-0-0-0-0-0-0-0-0-0-0-0-0--|--2--2-2-2-2-2-2--0--0-0-0-0-0-0--| 
Ab|--3--3-3-3-3-3-3------------------|--2--2-2-2-2-2-2-2-2-2-2-2-2-2-2--|--3--3-3-3-3-3-3------------------| 
Eb|----------------------------------|--3--3-3-3-3-3-3-3-3-3-3-3-3-3-3--|----------------------------------| 

     v  v ^ v ^ v ^ v ^ v ^ v ^ v ^     v        v        v 
Eb|--3--3-3-3-3-3-3-3-3-3-3-3-3-3-3--|--0--------2--------3--------| 
Bb|--3--3-3-3-3-3-3-3-3-3-3-3-3-3-3--|--1--------3--------3--------| 
Gb|--0--0-0-0-0-0-0-0-0-0-0-0-0-0-0--|--0--------2--------0--------| 
Db|--0--0-0-0-0-0-0-0-0-0-0-0-0-0-0--|--2--------0--------0--------| 
Ab|--2--2-2-2-2-2-2-2-2-2-2-2-2-2-2--|--3-----------------2--------| 
Eb|--3--3-3-3-3-3-3-3-3-3-3-3-3-3-3--|--------------------3--------| 

Guitar 2 (Clean with Slide) (3:51 - 4:45) 

Eb|---------------------------|-------------------------------------19-17-15-----------------15---| 
Bb|---17\15---15\12---12------|-----12\10---10\8---8------------15-----------17---12/15------15---| 
Gb|---16\14---14\12---12------|-----12\11---11\9---9------14h16-------------------12/14-----------| 
Db|---------------------------|-------------------------------------------------------------------| 
Ab|---------------------------|-------------------------------------------------------------------| 
Eb|---------------------------|-------------------------------------------------------------------| 

Guitar 3 (Fingerpicked Acoustic) (3:40 - 4:18) 

Eb|--0-----2-----3------------------0--3---------3p0------|--------------------------------0--3--2-----0-----| 
Bb|--0-----3-----3-----0--1--1------------3----------3----|--0-----0-----0-----0--3--1-----3--3--3-----3--3--| 
Gb|--0--0--2--2--0--0--0-----2--2---------0--0---------0--|--0--0--0--0--0--0--0--0--0-----2--0--2--2--2-----| 
Db|--------0-----------------2----2-------2----0----------|--------------------------------0--0--0-----0-----| 
Ab|--------------------------0------0--0--3---------------|--3-----3-----3-----3--3--3--3--------------------| 
Eb|--0-----------3-----3----------------------------------|--------------------------------------------------| 

Eb|--0-----2-----3---------------0-3-0-----0----|--0-----0--3--2-----2--5-----------------------------------| 
Bb|--0-----3-----3-----0-3--1--------0-------0--|--1-----1--1--3-----3--3--0-------0-------0-------0--------| 
Gb|--0--0--2--2--0--0-------0--------0-0--------|--0--0--0--0--2--2--2--2----0-------0-------0-------0------| 
Db|--------0------------------------------------|--------------0-----0--0------0-------0-------0-------0----| 
Ab|-------------------------3--3----------------|--3-----3--3-----------------------------------------------| 
Eb|--0-----------3-------------------0---0------|--------------------------------3-------3-------3-------3--| 

Eb|--0-----0--3--2-----2--5--|---------------------------| 
Bb|--1-----1--1--3-----3--3--|--0-------0--------12+-----| 
Gb|--0--0--0--0--2--2--2--2--|----0-------0------12+-----| 
Db|--------------0-----0--0--|------0-------0----12+-----| 
Ab|--3-----3--3--------------|---------------------------| 
Eb|--------------------------|--------3-------3----------| 




Tab Legend 

| /  slide up 
| \  slide down 
| h  hammer-on 
| p  pull-off 
| ~  vibrato 
| +  harmonic 
| x  Mute note 
| v  downstroke 
| ^  upstroke 
=============================================================================== 
		  

See also:

tabs Gary Moore - Parisienne Walkways tabs Crazy Town - Buterfly tabs Velvet Underground - Heroin tabs Slash Snakepit - Godfather Theme tabs Lifehouse - Everything tabs Hoobastank - Disappear
e-chords

Other versions:

tabs Stone Sour - St Marie
auto scroll beats size up size down change color hide chords drawings
tab show chords e-chords YouTube Clip e-chords hide all tabs e-chords go to top tab

share