Stone Sour

Road Hogs

Stone Sour

tabs

by  HUGO_RODRIGUES

save to print version add songbook text version e-mail correct tuner
chordsukulelecavacokeyboardtabbassdrumsharmonicaflute Guitar Pro
close

there isn't a video lesson for this song

chords

Road Hogs

	  		Intro/Post-Chorus 

  Guitar 1&2 for most of the song 
C#|------------------------------------------| 
G#|------------------------------------------| 
E |------------------------------------------| 
B |------------------------------------------| 
F#|---/5-3-----------------------------------| 
B |-0------6--0-5--0-3-0--0-3-5--------------| 


Verse 

C#|------------------------------------------| 
G#|------------------------------------------| 
E |------------------------------------------| 
B |------------------------------------------| 
F#|-0-0--0-0-0--0-0-0--0--3-5----------------| 
B |-0-0--0-0-0--0-0-0--0--3-5----------------| 

Then 
C#|------------------------------------------| 
G#|------------------------------------------| 
E |------------------------------------------| 
B |------------------------------------------| 
F#|-0-0--0-0-0--0-0-0--0--3-3-2--------------| 
B |-0-0--0-0-0--0-0-0--0--3-3-2--------------| 


Pre-Chorus 

C#|------------------------------------------| 
G#|------------------------------------------| 
E |------------------------------------------| 
B |------------------------------------------| 
F#|-0--6-5-0-3-5-----------------------------| 
B |-0--6-5-0-3-5-----------------------------| 
   X3 then 

C#|------------------------------------------| 
G#|------------------------------------------| 
E |------------------------------------------| 
B |------------------------------------------| 
F#|-0--6-5-0-3-5-3---6-2---------------------| 
B |-0--6-5-0-3-5-3---6-2---------------------| 


Chorus 

C#|------------------------------------------| 
G#|------------------------------------------| 
E |------------------------------------------| 
B |------------------------------------------| 
F#|-0-0-0-0-001-1-0--------------------------| 
B |-0-0-0-0-001-1-0--------------------------| 
    * * * * **    *  

  X3 then 
C#|------------------------------------------| 
G#|------------------------------------------| 
E |------------------------------------------| 
B |------------------------------------------| 
F#|-0-0-0-0-003--1----------------------------| 
B |-0-0-0-0-003--1----------------------------| 
    * * * * **      

Post-Chorus 

C#|------------------------------------------| 
G#|------------------------------------------| 
E |------------------------------------------| 
B |------------------------------------------| 
F#|---/5-3-----------------------------------| 
B |-0------6--0-5--0-3-0--0-3-5--------------| 

  Gradual bends  
C#|------------------------------------------| 
G#|------------------------------------------| 
E |--9^---12^^---12-17-12-16/15-12-15-14\----| 
B |------------------------------------------| 
F#|------------------------------------------| 
B |------------------------------------------| 

Verse 
Pre-Chorus 
Chorus 
Verse with solo 


Solo         
    
 #this is all in one motion, only pick first note (7)   
C#|------------------------------------------| 
G#|-10~---10--10---------------#-------------| 
E |-10~-------10--10-8h10--7~--7\3/7\3-------| 
B |------------------------------------------| 
F#|------------------------------------------| 
B |------------------------------------------| 

C#|------------------------------------------| 
G#|------------------------------------------| 
E |-17~-16-15-14-----------------------------| 
B |--------------15-13h15-12--15~\-----------| 
F#|------------------------------------------| 
B |------------------------------------------| 

C#|------------------------------------------| 
G#|-18--15--18-15-18~------------------------| 
E |--------------------/19-17-14--12---------| 
B |------------------------------------------| 
F#|------------------------------------------| 
B |------------------------------------------| 

C#|------------------------------------------------------| 
G#|------------------------------------------------------| 
E |-14--17~-16-15-14-------------------------------------| 
B |------------------15-13-12-15--15-13-12-13-15-12--10^^| 
F#|------------------------------------------------------| 
B |------------------------------------------------------| 


Pre-Chorus and small solo 

Corey starts singing 
This is the gist of it, played with vibrato, bends and sliding 
all around the strings 
C#|------------------------------------------| 
G#|---------------/13------------------------| 
E |-10-------10----------13^---9^---13^^\----| 
B |------10----------------------------------| 
F#|------------------------------------------| 
B |------------------------------------------| 

Chorus 
Pre-Chorus/Outro 


Outro 

                                   #more sliding around 
C#|---------------------------------------------------| 
G#|------13"-----------------------------------10-13--| 
E |-10"-------14"-------------------------#--10-------| 
B |----------------12^"------12\10-----12-------------| 
F#|-----------------------12-------12-----------------| 
B |---------------------------------------------------| 

Guitar 1 
C#|------------------------------------------| 
G#|------------------------------------------| 
E |------------------------------------------| 
B |------------------------------------------| 
F#|-0~---------------------------------------| 
B |-0~---------------------------------------| 

*********************************** 

*  Palm mute 
X  Dead note 
+  Pinch harmonic 
^  Half step Bend 
^^ Whole step bend etc. 
"  Vibrato 
/  Slide down 
\  Slide down 
h  Hammer-on 
p  Pull-off 
~  Ring out 
#  Writers note(ex. #this part is played very fast) 

*********************************** 
		  

See also:

tabs Gary Moore - Parisienne Walkways tabs Crazy Town - Buterfly tabs Velvet Underground - Heroin tabs Slash Snakepit - Godfather Theme tabs Lifehouse - Everything tabs Hoobastank - Disappear
e-chords

Other versions:

tabs Stone Sour - Road Hogs
auto scroll beats size up size down change color hide chords drawings
tab show chords e-chords YouTube Clip e-chords hide all tabs e-chords go to top tab

share