Stone Sour

Inside The Cynic

Stone Sour

tabs

by  VICTBORGES

save to print version add songbook text version e-mail correct tuner
chordsukulelecavacokeyboardtabbassdrumsharmonicaflute Guitar Pro
close

there isn't a video lesson for this song

chords

Inside The Cynic

	  		

Intro A:        Intro B: 
 
|--------------|-------------------------------------------------| 
|--------------|-------------------------------------------------| 
|--------------|-------------------------------------------------| 
|-9-9-9-10-9-7-|-------------------------------------------------| 
|-7-7-7--8-7-5-|-------------------------------------------------| 
|--------------|-14-15-14-12-14-15-14-12-14-15-14-12-15-14-14-12-| 
               PM----------------------------------------------- 


Verse: 
 
|-------------------------------------------------------------------| 
|-------------------------------------------------------------------| 
|-------------------------------------------------------------------| 
|-------------------------------------------------------------------| 
|---------------------------------------------------------8-5-7-5-7-| 
|-14-14-14--15-14-12--14-14-14-17-14-15-14-14-14-15-14-12-8-5-7-5-7-| 

PM------------------------------------------------------- 

Chorus: 
 
|-------------------------------------------| 
|-------------------------------------------| 
|-------------------------------------------| 
|---9-9---9-9---9-9-------------------------| 
|-2-7-7-2-7-7-2-7-7-------------------------| 
|-2-----2-----2-----14-15-14-12-14-15-14-12-| 
                   PM---------------------- 


Don't know the solo but during the solo guitar 2 plays the verse. 

Bridge: 
 
|---------------|-------------------| 
|---------------|-------------------| 
|---------------|-------------------| 
|---------------|-------------------| 
|---------------|-----------5-------| 
|-5~-8-7-8-7-8-7|5~-8-7-8-7---8-7-5~| 


 
		  

See also:

tabs Gary Moore - Parisienne Walkways tabs Crazy Town - Buterfly tabs Velvet Underground - Heroin tabs Slash Snakepit - Godfather Theme tabs Lifehouse - Everything tabs Hoobastank - Disappear
e-chords

Other versions:

tabs Stone Sour - Inside The Cynic
auto scroll beats size up size down change color hide chords drawings
tab show chords e-chords YouTube Clip e-chords hide all tabs e-chords go to top tab

share