Stone Sour

I Can't Believe

Stone Sour

tabs Expert expert

by  VICTBORGES

save to print version add songbook text version e-mail correct tuner
chordsukulelecavacokeyboardtabbassdrumsharmonicaflute Guitar Pro
close

there isn't a video lesson for this song

chords

I Can't Believe

	  		

                          __________  __________ 
 
   /0:01 Intro (Clean)   |1.     3x \| 2.       \ /0:18 Verse 1                 7x   /0:53 Pre- 
Eb|----------------------|-----------------------------------------------------------------------| 
Bb|----------------------------------|-----------|----------------------------------|------------| 
Gb|*---------0---------0-|------0---*|------0~---|*---------0---------0-------0----*|---------0--| 
Db|*------4----4-----4---|----4---4-*|----4------|*------4----4-----4-------4---4--*|------4-----| 
Ab|-----2--------2-3-----|-5---------|-5---------|-----2--------2-3------5----------|----2-------| 
eb|--0----------------------------------------------0---------------------------------0----------| 

                                                                             _______________  / 
 
  Chorus                        /0:58 Chorus 1                              |1.          3x \ 
|---------------------------------0---0-0-0--3---3-3-3-3-3-3-3-3--3---3-3-3-|----------------| 
|------1--1--1--1--7--7--7--7--|--0---0-0-0--5---5-5-5-5-5-5-5-5--3---3-3-3---7--8--7-8-7-8--| 
|------0--0--0--0--7--7--7--7--|*-0---0-0-0--5---5-5-5-5-5-5-5-5--4---4-4-4-|-7--7--7-7-7-7-*| 
|-4----2--2--2--2--7--7--7--7--|*-2---2-2-2--5---5-5-5-5-5-5-5-5--5---5-5-5-|-7--7--7-7-7-7-*| 
|---2--3--3--3--3--5--5--5--5--|--2---2-2-2--3---3-3-3-3-3-3-3-3--5---5-5-5-|-5--5--5-5-5-5--| 
|---------------------------------0---0-0-0-----------------------3---3-3-3------------------| 

       p.m................| 
 
 _______                         __________  ___________ 
| 2.    \ /1:18 Pre-Verse       |1.        \| 2.        \ /1:28 Verse 2     /2:06 Pre-Chorus 
|-5-----------------------------|------------------------------------------------------------| 
--7~-----|----------------------------------|------------|-----------------|-----------------| 
|-7~-----|*---------0---------0-|------0---*|------0~----|------Verse------|-----Pre-Chorus--| 
|-7~-----|*------4----4-----4---|----4---4-*|----4-------|-----------------|-----------------| 
|-5------|-----2--------2-3-----|-5---------|-5----------|-----------------|-----------------| 
|-----------0--------------------------------------------------------------------------------| 


                                          _________________  _______________________ 
 
  2   /2:10 Chorus 2     /2:52           |1.            3x \| 2. Dist. on           \ /3:13 G 
|----------------------------------------|---------------------------------------------------| 
|----|------------------|-----------------------------------|------------------------|-------| 
|----|-----Chorus-8x----|*---------0-----|-----0-------0---*|-5--5--5--5--7--7--7--7-|-12--14| 
|----|------------------|*------4----4---|---4-------4---4-*|-5--5--5--5--7--7--7--7-|-------| 
|----|------------------|-----2--------2-|-3------5---------|-3--3--3--3--5--5--5--5-|-------| 
|--------------------------0-----------------------------------------------------------------| 


 
  uitar Solo 
|------------------------------------------------------------------------------------15-15-15| 
|--------------------------------------------------------------------------------------------| 
|-b(16)--14b(16)-r--12~----14-14-14p12--------------------14b(16)--14b(16)-r--12~------------| 
|--------------------------------------14-14-14p12-12~---------------------------------------| 
|--------------------------------------------------------------------------------------------| 
|--------------------------------------------------------------------------------------------| 


 
                                                   T                    T 
|-p12----------------------------------------------------------------------------------------| 
|-----15-12---------------------------12--12h15h17h20p17p15p12-12h15h17h20p17p15p12-12-------| 
|-----------14-12--14b(16)-r-(16)~------------------------------------------------------14~--| 
|--------------------------------------------------------------------------------------------| 
|--------------------------------------------------------------------------------------------| 
|--------------------------------------------------------------------------------------------| 



 
|---------17-17-17p15-------15p12-----------15-12--------------------------------------------| 
|---------------------17-15-------15~---15--------15-12--------------------------------------| 
|--12~--------------------------------------------------14-12-14p12----------12-14-12-14b(16)| 
|-------------------------------------------------------------------14-12-14-----------------| 
|--------------------------------------------------------------------------------------------| 
|--------------------------------------------------------------------------------------------| 


 
                                                           /3:35 Chorus 3 (Distortion) 
|--------------------------------------------------------------------------------------------| 
|---------------------------------------------------------|----------------------------------| 
|-(16)-(16)-r--14b(16)-14b(16)-14b(16)-14b(16)-14b(16)-r--|*------------5---5--5--5-5--------| 
|---------------------------------------------------------|*-2---2-2-2--5---5--5--5-5--5---5-| 
|---------------------------------------------------------|--2---2-2-2--3---3--3--3-3--5---5-| 
|------------------------------------------------------------0---0-0-0-----------------3---3-| 

                                                                 p.m..| 
        _________________  ________ 
 
       /1.           7x  |/ 2.     |         /4:20 Outro 
|-----|---------------------------------------------------------------------------0----------|| 
|------------------------|---------|--------|----------------------------------|---0---------|| 
|-----|-7---7--7--7-7---*|-7~------|--------|*---------0---------0-------0---*-|----0--------|| 
|-5-5-|-7---7--7--7-7---*|-7~------|-2~-----|*------4----4-----4-------4---4-*-|-----2-------|| 
|-5-5-|-5---5--5--5-5----|-5~------|-2~-----|-----2--------2-3------5----------|------2------|| 
|-3-3--------------------------------0~--------0---------------------------------------0-----|| 


 


Rythm Guitar during Solo: 
 
|-------------------------------------------------------|| 
|-------------------------------------------------------|| 
|*------------5---5--5--5-5-------------7---7--7--7-7--*|| 
|*-2---2-2-2--5---5--5--5-5--5---5-5-5--7---7--7--7-7--*|| 
|--2---2-2-2--3---3--3--3-3--5---5-5-5--5---5--5--5-5---|| 
|--0---0-0-0-----------------3---3-3-3------------------|| 
       p.m..| 

 
		  

Full key step upFull key step up
Half key step upHalf key step up
Half key step downHalf key step down
Full key step downFull key step down
hide glossary

See also:

tabs Wheatus - Teenage Dirtbag tabs James Blunt - Wisemen tabs Candlebox - Far behind tabs Slash Snakepit - Godfather Theme tabs Hoobastank - Disappear tabs Iron Butterfly - IronButterfly-in A Gadda Da Vida
e-chords

Other versions:

tabs Stone Sour - I Can't Believe tabs Joe Pass - I Can't Believe That You're In Love With Me
auto scroll beats size up size down change color hide chords drawings
tab show chords e-chords YouTube Clip e-chords hide all tabs e-chords go to top tab

share