Stone Sour

Gone Sovereign

Stone Sour

tabs Expert expert

by  GUSTSILVA

save to print version add songbook text version e-mail correct tuner
chordsukulelecavacokeyboardtabbassdrumsharmonicaflute Guitar Pro
close

there isn't a video lesson for this song

chords

Gone Sovereign

	  		
Tuning: C#   G#   C#   F#   A#   D#  

                                             
 D#||----------------------|-------------------|-------------------|  
 A#||----------------------|-------------------|-------------------|  
 F#||----------------------|-------------------|-------------------|  
 C#||--0--L--------L----L--|--L----------------|--L----------------|  
 G#||--0--L--------L----L--|--L----------------|--L----------------|  
 C#||--0--L--------L----L--|--L----------------|--L----------------|  


                                       
                                            
-------------------|-----------------------------------| 
-------------------|-----------------------------------| 
-------------------|--7--------------------------------| 
--L----------------|--7--------0--0--0--0--0--0--0--0--| 
--L----------------|--5--------0--0--0--0--0--0--0--0--| 
--L----------------|-----------0--0--0--0--0--0--0--0--| 


                                       
                                                    
-----------------------------------|-----------------------------------| 
-----------------------------------|-----------------------------------| 
--7--------------------------------|--7--------------------------------| 
--7--------0--0--0--0--0--0--0--0--|--7--------0--0--0--0--0--0--0--0--| 
--5--------0--0--0--0--0--0--0--0--|--5--------0--0--0--0--0--0--0--0--| 
-----------0--0--0--0--0--0--0--0--|-----------0--0--0--0--0--0--0--0--| 


                                       
                                                    
-----------------------------------|-----------------------------------| 
-----------------------------------|-----------------------------------| 
--7--------------------------------|--7--------------------------------| 
--7--------0--0--0--0--0--0--0--0--|--7--------0--0--0--0--0--0--0--0--| 
--5--------0--0--0--0--0--0--0--0--|--5--------0--0--0--0--0--0--0--0--| 
-----------0--0--0--0--0--0--0--0--|-----------0--0--0--0--0--0--0--0--| 


                                       
                                                    
-----------------------------------|-----------------------------------| 
-----------------------------------|-----------------------------------| 
--7--------------------------------|--7--------------------------------| 
--7--------0--0--0--0--0--0--0--0--|--7--------0--0--0--0--0--0--0--0--| 
--5--------0--0--0--0--0--0--0--0--|--5--------0--0--0--0--0--0--0--0--| 
-----------0--0--0--0--0--0--0--0--|-----------0--0--0--0--0--0--0--0--| 


                                       
                                                    
-----------------------------------|-----------------------------------| 
-----------------------------------|-----------------------------------| 
--7--------------------------------|--7--------------------------------| 
--7--------0--0--0--0--0--0--0--0--|--7--------0--0--0--0--0--0--0--0--| 
--5--------0--0--0--0--0--0--0--0--|--5--------0--0--0--0--0--0--0--0--| 
-----------0--0--0--0--0--0--0--0--|-----------0--0--0--0--0--0--0--0--| 


                                       
                                                    
-----------------------------------|-----------------------------------| 
-----------------------------------|-----------------------------------| 
--7--------------------------------|--7--------------------------------| 
--7--------0--0--0--0--0--0--0--0--|--7--------0--0--0--0--0--0--0--0--| 
--5--------0--0--0--0--0--0--0--0--|--5--------0--0--0--0--0--0--0--0--| 
-----------0--0--0--0--0--0--0--0--|-----------0--0--0--0--0--0--0--0--| 


                                       
                                                    
-----------------------------------|-----------------------------------| 
-----------------------------------|-----------------------------------| 
--7--------------------------------|--5--------5--5--5--5--5--5--5--5--| 
--7--------0--0--0--0--0--0--0--0--|--5--------5--5--5--5--5--5--5--5--| 
--5--------0--0--0--0--0--0--0--0--|--3--------3--3--3--3--3--3--3--3--| 
-----------0--0--0--0--0--0--0--0--|-----------------------------------| 


                                       
                                                    
-----------------------------------|-----------------------------------| 
-----------------------------------|-----------------------------------| 
--5--------5--5--5--5--5--5--5--5--|--7--------------------------------| 
--5--------5--5--5--5--5--5--5--5--|--7--------0--0--0--0--0--0--0--0--| 
--3--------3--3--3--3--3--3--3--3--|--5--------0--0--0--0--0--0--0--0--| 
-----------------------------------|-----------0--0--0--0--0--0--0--0--| 


                                       
                                                    
-----------------------------------|-----------------------------------| 
-----------------------------------|-----------------------------------| 
--7--------------------------------|--7--------------------------------| 
--7--------0--0--0--0--0--0--0--0--|--7--------0--0--0--0--0--0--0--0--| 
--5--------0--0--0--0--0--0--0--0--|--5--------0--0--0--0--0--0--0--0--| 
-----------0--0--0--0--0--0--0--0--|-----------0--0--0--0--0--0--0--0--| 


                                       
                                                    
-----------------------------------|-----------------------------------| 
-----------------------------------|-----------------------------------| 
--7--------------------------------|--7--------------------------------| 
--7--------0--0--0--0--0--0--0--0--|--7--------0--0--0--0--0--0--0--0--| 
--5--------0--0--0--0--0--0--0--0--|--5--------0--0--0--0--0--0--0--0--| 
-----------0--0--0--0--0--0--0--0--|-----------0--0--0--0--0--0--0--0--| 


                                       
                                                    
-----------------------------------|-----------------------------------| 
-----------------------------------|-----------------------------------| 
--7--------------------------------|--5--------5--5--5--5--5--5--5--5--| 
--7--------0--0--0--0--0--0--0--0--|--5--------5--5--5--5--5--5--5--5--| 
--5--------0--0--0--0--0--0--0--0--|--3--------3--3--3--3--3--3--3--3--| 
-----------0--0--0--0--0--0--0--0--|-----------------------------------| 


                                       
                                                    
-----------------------------------|-----------------------------------| 
-----------------------------------|-----------------------------------| 
--5--------5--5--5--5--5--5--5--5--|--7--------------------------------| 
--5--------5--5--5--5--5--5--5--5--|--7--------0--0--0--0--0--0--0--0--| 
--3--------3--3--3--3--3--3--3--3--|--5--------0--0--0--0--0--0--0--0--| 
-----------------------------------|-----------0--0--0--0--0--0--0--0--| 


                                       
                                                    
-----------------------------------|-----------------------------------| 
-----------------------------------|-----------------------------------| 
--7--------------------------------|-----------------------------------| 
--7--------0--0--0--0--0--0--0--0--|--3--------3--3--3--3--3--3--3--3--| 
--5--------0--0--0--0--0--0--0--0--|--3--------3--3--3--3--3--3--3--3--| 
-----------0--0--0--0--0--0--0--0--|--3--------3--3--3--3--3--3--3--3--| 


                                       
                                                    
-----------------------------------|-----------------------------------| 
-----------------------------------|-----------------------------------| 
-----------------------------------|-----------------------------------| 
--0--------0--0--0--0--0--0--0--0--|--5--------5--5--5--5--5--5--5--5--| 
--0--------0--0--0--0--0--0--0--0--|--5--------5--5--5--5--5--5--5--5--| 
--0--------0--0--0--0--0--0--0--0--|--5--------5--5--5--5--5--5--5--5--| 


                                       
                                                    
-----------------------------------|-----------------------------------| 
-----------------------------------|-----------------------------------| 
-----------------------------------|-----------------------------------| 
--0--------0--0--0--0--0--0--0--0--|--8--------8--8--8--8--8--8--8--8--| 
--0--------0--0--0--0--0--0--0--0--|--8--------8--8--8--8--8--8--8--8--| 
--0--------0--0--0--0--0--0--0--0--|--8--------8--8--8--8--8--8--8--8--| 


                   
                         
-----------------------------------| 
-----------------------------------| 
--7--------7--7--7--7--7--7--7--7--| 
--7--------7--7--7--7--7--7--7--7--| 
--5--------5--5--5--5--5--5--5--5--| 
-----------------------------------| 


                  
                                 
--------------------------------------------------| 
--------------------------------------------------| 
--------------------------------------------------| 
--------------------------------------------------| 
--3--3--3--3--3--3--3--3--3--3--3--3--3--3--3--3--| 
--------------------------------------------------| 


   
                                               
-----------------------------------|----|----|------------------------| 
-----------------------------------|----|----|------------------------| 
-----------------------------------|----|----|------------------------| 
-----------------------------------|----|----|----------------/12\----| 
--3--------------------------------|----|----|----------------/12\----| 
-----------------------------------|----|----|----------------/12\----| 


                                      
-------------------------|-------------------------| 
-------------------------|-------------------------| 
-------------------------|-------------------------| 
-------------------------|-------------------------| 
-------------5--------L--|-------------5--------L--| 
--/6--L-0--L-------------|--/6--L-0--L-------------| 


                           
                                      
-------------------------------|----------------------------| 
-------------------------------|----------------------------| 
----------------------7--------|-------5--L-7----L----------| 
--0--L-3--L-6--L------7--0--0--|--3--L-5--L-7----L--/12\----| 
--0--L-3--L-6--L-3--L-5--0--0--|--3--L-3--L-5----L--/12\----| 
--0--L-3--L-6--L---------0--0--|--3--L--------------/12\----| 


                                            
                                            
--------------------------------|---------------------------------| 
--------------------------------|---------------------------------| 
--------------------------------|---------------------------------| 
--6--L-0--L-0----0--0--0--0--0--|--/6--L-0--L-0--L-/6--L-0--L-3-5-| 
--6--L-0--L-0----0--0--0--0--0--|--/6--L-0--L-0--L-/6--L-0--L-3-5-| 
--6--L-0--L-0----0--0--0--0--0--|--/6--L-0--L-0--L-/6--L-0--L-3-5-| 


                                            
                                            
--------------------------------|---------------------------------| 
--------------------------------|---------------------------------| 
--------------------------------|---------------------------------| 
--3--L-0--L-0----0--0--0--0--0--|--/6--L-0--L-0--L-/6--L-0--L-3-5-| 
--3--L-0--L-0----0--0--0--0--0--|--/6--L-0--L-0--L-/6--L-0--L-3-5-| 
--3--L-0--L-0----0--0--0--0--0--|--/6--L-0--L-0--L-/6--L-0--L-3-5-| 


                                            
                                            
--------------------------------|---------------------------------| 
--------------------------------|---------------------------------| 
--------------------------------|---------------------------------| 
--3--L-0--L-0----0--0--0--0--0--|--/6--L-0--L-0--L-/6--L-0--L-3-5-| 
--3--L-0--L-0----0--0--0--0--0--|--/6--L-0--L-0--L-/6--L-0--L-3-5-| 
--3--L-0--L-0----0--0--0--0--0--|--/6--L-0--L-0--L-/6--L-0--L-3-5-| 


                                            
                                            
--------------------------------|---------------------------------| 
--------------------------------|---------------------------------| 
--------------------------------|---------------------------------| 
--3--L-0--L-0----0--0--0--0--0--|--/6--L-0--L-0--L-/6--L-0--L-3-5-| 
--3--L-0--L-0----0--0--0--0--0--|--/6--L-0--L-0--L-/6--L-0--L-3-5-| 
--3--L-0--L-0----0--0--0--0--0--|--/6--L-0--L-0--L-/6--L-0--L-3-5-| 


                         
                     
---------------------------------| 
---------------------------------| 
---------------------------------| 
--3--L-3--L-3--L--3--------------| 
--3--L-3--L-3--L--3--3--3--3--3--| 
--3--L-3--L-3--L--3--------------| 


                      
                             
----------------------------------------------| 
----------------------------------------------| 
----------------------------------------------| 
----------------------------------------------| 
--3-5-------------------3-5-------------------| 
------0--0--0--0--0--0------0--0--0--0--0--0--| 


                         
                     
---------------------------------| 
---------------------------------| 
---------------------------------| 
--5--L-5--L-5--L--5--------------| 
--5--L-5--L-5--L--5--3--3--3--3--| 
--5--L-5--L-5--L--5--------------| 


                      
                             
----------------------------------------------| 
----------------------------------------------| 
----------------------------------------------| 
----------------------------------------------| 
--3-5-------------------3-5-------------------| 
------0--0--0--0--0--0------0--0--0--0--0--0--| 


                         
                     
---------------------------------| 
---------------------------------| 
---------------------------------| 
--8--L-8--L-8--L--8--------------| 
--8--L-8--L-8--L--8--3--3--3--3--| 
--8--L-8--L-8--L--8--------------| 


                      
                             
----------------------------------------------| 
----------------------------------------------| 
----------------------------------------------| 
----------------------------------------------| 
--3-5-------------------3-5-------------------| 
------0--0--0--0--0--0------0--0--0--0--0--0--| 


                                    
----------------------------------|--------------------------------| 
----------------------------------|--------------------------------| 
--5-5-5-5-5-5-5-5-5-5-5-5-5-5-5-5-|--5-5-5-5-5-5-5-5-5-------------| 
--5-5-5-5-5-5-5-5-5-5-5-5-5-5-5-5-|--5-5-5-5-5-5-5-5-5-----/12\----| 
--3-3-3-3-3-3-3-3-3-3-3-3-3-3-3-3-|--3-3-3-3-3-3-3-3-3-----/12\----| 
----------------------------------|------------------------/12\----| 


                                      
-------------------------|-------------------------| 
-------------------------|-------------------------| 
-------------------------|-------------------------| 
-------------------------|-------------------------| 
-------------5--------L--|-------------5--------L--| 
--/6--L-0--L-------------|--/6--L-0--L-------------| 


                                                          
                                            
-------------------------------|--------------------------|--5----------------| 
-------------------------------|--------------------------|--6----------------| 
----------------------7--------|-------5--L-7----L---L----|--7----------------| 
--0--L-3--L-6--L------7--0--0--|--3--L-5--L-7----L---L----|--7----------------| 
--0--L-3--L-6--L-3--L-5--0--0--|--3--L-3--L-5----L---L----|--5----------------| 
--0--L-3--L-6--L---------0--0--|--3--L--------------------|-------------------| 


                                         
--L----------------|--L----------------|--L----------------| 
--L----------------|--L----------------|--L----------------| 
--L----------------|--L----------------|--L----------------| 
--L----------------|--L----------------|--L----------------| 
--L----------------|--L----------------|--L----------------| 
-------------------|-------------------|-------------------| 


                     
---------------------------------| 
---------------------------------| 
---------------------------------| 
---------------------------------| 
---------------------3-3-3-3-3-3-| 
--5b--L-5b--L-5b--L--------------| 


                                          
                                                   
----------------------------------------------|-------------------------------| 
----------------------------------------------|-------------------------------| 
----------------------------------------------|-------------------------------| 
----------------------------------------------|--/6--L-0--L-/6--L--0----------| 
--3-5-------------------3-5-------------------|--/6--L-0--L-/6--L--0--3-3-3-3-| 
------0--0--0--0--0--0------0--0--0--0--0--0--|--/6--L-0--L-/6--L--0----------| 


                      
                             
----------------------------------------------| 
----------------------------------------------| 
----------------------------------------------| 
----------------------------------------------| 
--3-5-------------------3-5-------------------| 
------0--0--0--0--0--0------0--0--0--0--0--0--| 


                     
---------------------------------| 
---------------------------------| 
---------------------------------| 
--/6--L-/6--L-/6--L--------------| 
--/6--L-/6--L-/6--L--3-3-3-3-3-3-| 
--/6--L-/6--L-/6--L--------------| 


                                          
                                                 
----------------------------------------------|-----------------------------| 
----------------------------------------------|-----------------------------| 
----------------------------------------------|-----------------------------| 
----------------------------------------------|--/6--L-0--L-/6--L--0--10----| 
--3-5-------------------3-5-------------------|--/6--L-0--L-/6--L--0--10----| 
------0--0--0--0--0--0------0--0--0--0--0--0--|--/6--L-0--L-/6--L--0--10----| 


                                    
--------------------------|--------------------------| 
--------------------------|--------------------------| 
--------------------------|--------------------------| 
--------------------------|--------------------------| 
--3--3--3--3--3--3--3--3--|--3--3--3--3--3--3--3--3--| 
--0--0--0--0--3--3--3--3--|--5--5--5--5--6--6--6--6--| 


                  
                                 
--------------------------------------------------| 
--------------------------------------------------| 
--------------------------------------------------| 
--7--7--7--7--7--7--7--7--7--7--7--7--7--7--7--7--| 
--7--7--7--7--7--7--7--7--7--7--7--7--7--7--7--7--| 
--7--7--7--7--7--7--7--7--7--7--7--7--7--7--7--7--| 


          
                          
------------------------------------------| 
------------------------------------------| 
------------------------------------------| 
------------------------------------------| 
------------------------------------------| 
--8--8--8--8--7--7--7--7--8-8-8-8-7-7-7-7-| 


                            |--3--|  |--3--| 
                                       
--/17-15-------------------------------------------------| 
---------17-15-17----------15-17-18-17-15----------------| 
------------------14-15-17----------------17----------15-| 
---------------------------------------------15-17-19----| 
---------------------------------------------------------| 
---------------------------------------------------------| 


                                             
----------------------------|-------------------------------| 
----------------------------|-------------------------------| 
--17--L-15--L-14--15--------|--14--L-15--L-14----L--14--15--| 
----------------------------|-------------------------------| 
----------------------------|-------------------------------| 
----------------------------|-------------------------------| 


                 
-----------------------------| 
-----------------------------| 
--17b--17--15--14--15--------| 
-----------------------------| 
-----------------------------| 
-----------------------------| 


            T                 T                 T 
   |--3--|  |--3--|  |--3--|  |--3--|  |--3--|  |--3--|  |--3--|  |--3--| 
                                                  
--------------------------------------------------------------------------| 
-----------------------------------------------------------------15-17-18-| 
--14-15-17-19-17-15-14-15-17-19-17-15-14-15-17-19-17-15-14-15-17----------| 
--------------------------------------------------------------------------| 
--------------------------------------------------------------------------| 
--------------------------------------------------------------------------| 


   |--3--|  |--3--|  |--3--|  |--3--| 
                            
------------------------------------------------| 
--17-15-----------------------------------------| 
--------17-15-14----------------14-15-17--------| 
-----------------17-15-14-15-17-----------------| 
------------------------------------------------| 
------------------------------------------------| 


                                  
--------------------------------------------------| 
-----------------------------13-15-16-15-16-18-16-| 
--12-14-15-14-15-17-15-17-19----------------------| 
--------------------------------------------------| 
--------------------------------------------------| 
--------------------------------------------------| 


                                  
--------13-15-17-15-17-18-17-15-------------------| 
--18-20-------------------------18-17-15----------| 
-----------------------------------------17-15-14-| 
--------------------------------------------------| 
--------------------------------------------------| 
--------------------------------------------------| 


                             
--------------------------------|--------------------| 
--------------------------------|--------------------| 
--14--L-14--L-14----------------|--------------------| 
--------------------15--15--14--|--15----------------| 
--------------------------------|--------------------| 
--------------------------------|--------------------| 


                                                            --   -- 
                                
------------------------------------|--------------------|----|----| 
------------------------------------|--------------------|----|----| 
--/17--L-17--L-17--17b--17----------|--------------------|----|----| 
----------------------------20--19--|--20----------------|----|----| 
------------------------------------|--------------------|----|----| 
------------------------------------|--------------------|----|----| 


                                                
----------------------------------|--13--L-12--L-10------------------| 
------------------15--L-13--L-11--|------------------15--L-15--L-15--| 
--14--L-12--L-10------------------|----------------------------------| 
----------------------------------|----------------------------------| 
----------------------------------|----------------------------------| 
----------------------------------|----------------------------------| 


                                           
                                                 
--------------------|----------------------------------------------| 
--------------------|----------------------------------------------| 
--14----------------|----------------------------------------------| 
--------------------|----------------------------------------------| 
--------------------|--3-5-------------------3-5-------------------| 
--------------------|------0--0--0--0--0--0------0--0--0--0--0--0--| 


                         
                     
---------------------------------| 
---------------------------------| 
---------------------------------| 
--5--L-5--L-5--L--5--------------| 
--5--L-5--L-5--L--5--3--3--3--3--| 
--5--L-5--L-5--L--5--------------| 


                      
                             
----------------------------------------------| 
----------------------------------------------| 
----------------------------------------------| 
----------------------------------------------| 
--3-5-------------------3-5-------------------| 
------0--0--0--0--0--0------0--0--0--0--0--0--| 


                         
                     
---------------------------------| 
---------------------------------| 
---------------------------------| 
--8--L-8--L-8--L--8--------------| 
--8--L-8--L-8--L--8--3--3--3--3--| 
--8--L-8--L-8--L--8--------------| 


                      
                             
----------------------------------------------| 
----------------------------------------------| 
----------------------------------------------| 
----------------------------------------------| 
--3-5-------------------3-5-------------------| 
------0--0--0--0--0--0------0--0--0--0--0--0--| 


                                  
----------------------------------|-----------------------------| 
----------------------------------|-----------------------------| 
--5-5-5-5-5-5-5-5-5-5-5-5-5-5-5-5-|--5-5-5-5-5-5-5-5-5----------| 
--5-5-5-5-5-5-5-5-5-5-5-5-5-5-5-5-|--5-5-5-5-5-5-5-5-5----------| 
--3-3-3-3-3-3-3-3-3-3-3-3-3-3-3-3-|--3-3-3-3-3-3-3-3-3----------| 
----------------------------------|-----------------------------| 


                                       
                                                    
-----------------------------------|-----------------------------------| 
-----------------------------------|-----------------------------------| 
--7--------------------------------|--7--------------------------------| 
--7--------0--0--0--0--0--0--0--0--|--7--------0--0--0--0--0--0--0--0--| 
--5--------0--0--0--0--0--0--0--0--|--5--------0--0--0--0--0--0--0--0--| 
-----------0--0--0--0--0--0--0--0--|-----------0--0--0--0--0--0--0--0--| 


                                       
                                                    
-----------------------------------|-----------------------------------| 
-----------------------------------|-----------------------------------| 
--7--------------------------------|--7--------------------------------| 
--7--------0--0--0--0--0--0--0--0--|--7--------0--0--0--0--0--0--0--0--| 
--5--------0--0--0--0--0--0--0--0--|--5--------0--0--0--0--0--0--0--0--| 
-----------0--0--0--0--0--0--0--0--|-----------0--0--0--0--0--0--0--0--| 


                                       
                                                    
-----------------------------------|-----------------------------------| 
-----------------------------------|-----------------------------------| 
--7--------------------------------|--7--------------------------------| 
--7--------0--0--0--0--0--0--0--0--|--7--------0--0--0--0--0--0--0--0--| 
--5--------0--0--0--0--0--0--0--0--|--5--------0--0--0--0--0--0--0--0--| 
-----------0--0--0--0--0--0--0--0--|-----------0--0--0--0--0--0--0--0--| 


                   
                                             
-----------------------------------|----------------------------------| 
-----------------------------------|----------------------------------| 
--7--------------------------------|----------------------------------| 
--7--------0--0--0--0--0--0--0--0--|----------------------------------| 
--5--------0--0--0--0--0--0--0--0--|----------------------------------| 
-----------0--0--0--0--0--0--0--0--|--0-0-0-0-2-2-2-2-3-3-3-3-5-5-5-5-| 


                                           
                                          
---------------------------------|-----------------------------| 
---------------------------------|-----------------------------| 
---------------------------------|-----------------------------| 
------------------0--0--0--0--0--|------------------0--/12\----| 
-------------5----0--0--0--0--0--|-------------5----0--/12\----| 
--/6--L-0--L------0--0--0--0--0--|--/6--L-0--L------0--/12\----| 


                                    
----------------------------|----------------------------| 
----------------------------|----------------------------| 
-----------------5--L-7--5--|-------7--L-5--L------------| 
--0--L-3--L-6--L-5--L-7--5--|--0--L-7--L-5--L-6--L-5--3--| 
--0--L-3--L-6--L-3--L-5--3--|--0--L-5--L-3--L-6--L-5--3--| 
--0--L-3--L-6--L------------|--0--L-----------6--L-5--3--| 


                                           
                                          
---------------------------------|-----------------------------| 
---------------------------------|-----------------------------| 
---------------------------------|-----------------------------| 
------------------0--0--0--0--0--|------------------0--/12\----| 
-------------5----0--0--0--0--0--|-------------5----0--/12\----| 
--/6--L-0--L------0--0--0--0--0--|--/6--L-0--L------0--/12\----| 


                                                 
                                     
----------------------------|-------------------------------| 
----------------------------|-------------------------------| 
-----------------5--L-7--5--|-------7--L-6--L-5--5--5--5----| 
--0--L-3--L-6--L-5--L-7--5--|--0--L-7--L-6--L-5--5--5--5----| 
--0--L-3--L-6--L-3--L-5--3--|--0--L-5--L-4--L-3--3--3--3----| 
--0--L-3--L-6--L------------|--0--L-------------------------| 


                                         
-------------------|-------------------|-------------------| 
-------------------|-------------------|-------------------| 
--L----------------|--L----------------|--L----------------| 
--L----------------|--L----------------|--L----------------| 
--L----------------|--L----------------|--L----------------| 
-------------------|-------------------|-------------------| 


   
-------------------|| 
-------------------|| 
--L----------------|| 
--L----------------|| 
--L----------------|| 
-------------------|| 

Guitar 2 

                                             
 D#||----------------------|-------------------|-------------------|  
 A#||----------------------|-------------------|-------------------|  
 F#||--7--L--------L----L--|--L----------------|--L----------------|  
 C#||----------------------|-------------------|-------------------|  
 G#||----------------------|-------------------|-------------------|  
 C#||----------------------|-------------------|-------------------|  


                                       
                                            
-------------------|-----------------------------------| 
-------------------|-----------------------------------| 
--L----------------|--7--------------------------------| 
-------------------|--7--------0--0--0--0--0--0--0--0--| 
-------------------|--5--------0--0--0--0--0--0--0--0--| 
-------------------|-----------0--0--0--0--0--0--0--0--| 


                                       
                                                    
-----------------------------------|-----------------------------------| 
-----------------------------------|-----------------------------------| 
--7--------------------------------|--7--------------------------------| 
--7--------0--0--0--0--0--0--0--0--|--7--------0--0--0--0--0--0--0--0--| 
--5--------0--0--0--0--0--0--0--0--|--5--------0--0--0--0--0--0--0--0--| 
-----------0--0--0--0--0--0--0--0--|-----------0--0--0--0--0--0--0--0--| 


                   
                                                    
-----------------------------------|---------------------|---------------------| 
-----------------------------------|---------------------|---------------------| 
--7--------------------------------|--10b----------------|--10b----------------| 
--7--------0--0--0--0--0--0--0--0--|---x-----------------|---x-----------------| 
--5--------0--0--0--0--0--0--0--0--|---8b----------------|---8b----------------| 
-----------0--0--0--0--0--0--0--0--|---------------------|---------------------| 


                                                               
                                                                   
---------------------|---------------------|-----------------------------------| 
---------------------|---------------------|-----------------------------------| 
--10b----------------|--10b----------------|--7--------------------------------| 
---x-----------------|---x-----------------|--7--------0--0--0--0--0--0--0--0--| 
---8b----------------|---8b----------------|--5--------0--0--0--0--0--0--0--0--| 
---------------------|---------------------|-----------0--0--0--0--0--0--0--0--| 


                                       
                                                    
-----------------------------------|-----------------------------------| 
-----------------------------------|-----------------------------------| 
--7--------------------------------|--7--------------------------------| 
--7--------0--0--0--0--0--0--0--0--|--7--------0--0--0--0--0--0--0--0--| 
--5--------0--0--0--0--0--0--0--0--|--5--------0--0--0--0--0--0--0--0--| 
-----------0--0--0--0--0--0--0--0--|-----------0--0--0--0--0--0--0--0--| 


                                       
                                                    
-----------------------------------|-----------------------------------| 
-----------------------------------|-----------------------------------| 
--7--------------------------------|--5--------5--5--5--5--5--5--5--5--| 
--7--------0--0--0--0--0--0--0--0--|--5--------5--5--5--5--5--5--5--5--| 
--5--------0--0--0--0--0--0--0--0--|--3--------3--3--3--3--3--3--3--3--| 
-----------0--0--0--0--0--0--0--0--|-----------------------------------| 


                   
                                                    
-----------------------------------|---------------------|---------------------| 
-----------------------------------|---------------------|---------------------| 
--5--------5--5--5--5--5--5--5--5--|--10b----------------|--10b----------------| 
--5--------5--5--5--5--5--5--5--5--|---x-----------------|---x-----------------| 
--3--------3--3--3--3--3--3--3--3--|---8b----------------|---8b----------------| 
-----------------------------------|---------------------|---------------------| 


                                       
                                                    
-----------------------------------|-----------------------------------| 
-----------------------------------|-----------------------------------| 
--7--------------------------------|--7--------------------------------| 
--7--------0--0--0--0--0--0--0--0--|--7--------0--0--0--0--0--0--0--0--| 
--5--------0--0--0--0--0--0--0--0--|--5--------0--0--0--0--0--0--0--0--| 
-----------0--0--0--0--0--0--0--0--|-----------0--0--0--0--0--0--0--0--| 


                                       
                                                    
-----------------------------------|-----------------------------------| 
-----------------------------------|-----------------------------------| 
--7--------------------------------|--7--------------------------------| 
--7--------0--0--0--0--0--0--0--0--|--7--------0--0--0--0--0--0--0--0--| 
--5--------0--0--0--0--0--0--0--0--|--5--------0--0--0--0--0--0--0--0--| 
-----------0--0--0--0--0--0--0--0--|-----------0--0--0--0--0--0--0--0--| 


                                       
                                                    
-----------------------------------|-----------------------------------| 
-----------------------------------|-----------------------------------| 
--5--------5--5--5--5--5--5--5--5--|--5--------5--5--5--5--5--5--5--5--| 
--5--------5--5--5--5--5--5--5--5--|--5--------5--5--5--5--5--5--5--5--| 
--3--------3--3--3--3--3--3--3--3--|--3--------3--3--3--3--3--3--3--3--| 
-----------------------------------|-----------------------------------| 


                                                               
                                                                   
---------------------|---------------------|-----------------------------------| 
---------------------|---------------------|-----------------------------------| 
--10b----------------|--10b----------------|-----------------------------------| 
---x-----------------|---x-----------------|--3--------3--3--3--3--3--3--3--3--| 
---8b----------------|---8b----------------|--3--------3--3--3--3--3--3--3--3--| 
---------------------|---------------------|--3--------3--3--3--3--3--3--3--3--| 


                                       
                                                    
-----------------------------------|-----------------------------------| 
-----------------------------------|-----------------------------------| 
--7--------------------------------|-----------------------------------| 
--7--------0--0--0--0--0--0--0--0--|--5--------5--5--5--5--5--5--5--5--| 
--5--------0--0--0--0--0--0--0--0--|--5--------5--5--5--5--5--5--5--5--| 
-----------0--0--0--0--0--0--0--0--|--5--------5--5--5--5--5--5--5--5--| 


                                       
                                                    
-----------------------------------|-----------------------------------| 
-----------------------------------|-----------------------------------| 
--7--------------------------------|-----------------------------------| 
--7--------0--0--0--0--0--0--0--0--|--8--------8--8--8--8--8--8--8--8--| 
--5--------0--0--0--0--0--0--0--0--|--8--------8--8--8--8--8--8--8--8--| 
-----------0--0--0--0--0--0--0--0--|--8--------8--8--8--8--8--8--8--8--| 


                   
                                             
-----------------------------------|----------------------------------| 
-----------------------------------|--8-8-8-8-8-8-8-8-8-8-8-8-8-8-8-8-| 
--7--------7--7--7--7--7--7--7--7--|--x-x-x-x-x-x-x-x-x-x-x-x-x-x-x-x-| 
--7--------7--7--7--7--7--7--7--7--|--5-5-5-5-5-5-5-5-5-5-5-5-5-5-5-5-| 
--5--------5--5--5--5--5--5--5--5--|----------------------------------| 
-----------------------------------|----------------------------------| 


                  
----------------------------------|-------------------|-------------------| 
--8-------------------------------|-------------------|-------------------| 
--x-------------------------------|-------------------|-------------------| 
--5-------------------------------|-------------------|-------------------| 
----------------------------------|-------------------|-------------------| 
----------------------------------|-------------------|-------------------| 


                                                            
------------------------|-------------------------|-------------------------| 
------------------------|-------------------------|-------------------------| 
------------------------|-------------------------|-------------------------| 
----------------/12\----|-------------------------|-------------------------| 
----------------/12\----|-------------5--------L--|-------------5--------L--| 
----------------/12\----|--/6--L-0--L-------------|--/6--L-0--L-------------| 


                           
                                      
-------------------------------|----------------------------| 
-------------------------------|----------------------------| 
----------------------7--------|-------5--L-7----L----------| 
--0--L-3--L-6--L------7--0--0--|--3--L-5--L-7----L--/12\----| 
--0--L-3--L-6--L-3--L-5--0--0--|--3--L-3--L-5----L--/12\----| 
--0--L-3--L-6--L---------0--0--|--3--L--------------/12\----| 


                                            
                                            
--------------------------------|---------------------------------| 
--------------------------------|---------------------------------| 
--------------------------------|---------------------------------| 
--6--L-0--L-0----0--0--0--0--0--|--/6--L-0--L-0--L-/6--L-0--L-3-5-| 
--6--L-0--L-0----0--0--0--0--0--|--/6--L-0--L-0--L-/6--L-0--L-3-5-| 
--6--L-0--L-0----0--0--0--0--0--|--/6--L-0--L-0--L-/6--L-0--L-3-5-| 


                                            
                                            
--------------------------------|---------------------------------| 
--------------------------------|---------------------------------| 
--------------------------------|---------------------------------| 
--3--L-0--L-0----0--0--0--0--0--|--/6--L-0--L-0--L-/6--L-0--L-3-5-| 
--3--L-0--L-0----0--0--0--0--0--|--/6--L-0--L-0--L-/6--L-0--L-3-5-| 
--3--L-0--L-0----0--0--0--0--0--|--/6--L-0--L-0--L-/6--L-0--L-3-5-| 


                                            
                                            
--------------------------------|---------------------------------| 
--------------------------------|---------------------------------| 
--------------------------------|---------------------------------| 
--3--L-0--L-0----0--0--0--0--0--|--/6--L-0--L-0--L-/6--L-0--L-3-5-| 
--3--L-0--L-0----0--0--0--0--0--|--/6--L-0--L-0--L-/6--L-0--L-3-5-| 
--3--L-0--L-0----0--0--0--0--0--|--/6--L-0--L-0--L-/6--L-0--L-3-5-| 


                                            
                                            
--------------------------------|---------------------------------| 
--------------------------------|---------------------------------| 
--------------------------------|---------------------------------| 
--3--L-0--L-0----0--0--0--0--0--|--/6--L-0--L-0--L-/6--L-0--L-3-5-| 
--3--L-0--L-0----0--0--0--0--0--|--/6--L-0--L-0--L-/6--L-0--L-3-5-| 
--3--L-0--L-0----0--0--0--0--0--|--/6--L-0--L-0--L-/6--L-0--L-3-5-| 


                         
                     
---------------------------------| 
---------------------------------| 
---------------------------------| 
--3--L-3--L-3--L--3--------------| 
--3--L-3--L-3--L--3--3--3--3--3--| 
--3--L-3--L-3--L--3--------------| 


                      
                             
----------------------------------------------| 
----------------------------------------------| 
----------------------------------------------| 
----------------------------------------------| 
--3-5-------------------3-5-------------------| 
------0--0--0--0--0--0------0--0--0--0--0--0--| 


                         
                     
---------------------------------| 
---------------------------------| 
---------------------------------| 
--5--L-5--L-5--L--5--------------| 
--5--L-5--L-5--L--5--3--3--3--3--| 
--5--L-5--L-5--L--5--------------| 


                      
                             
----------------------------------------------| 
----------------------------------------------| 
----------------------------------------------| 
----------------------------------------------| 
--3-5-------------------3-5-------------------| 
------0--0--0--0--0--0------0--0--0--0--0--0--| 


                         
                     
---------------------------------| 
---------------------------------| 
---------------------------------| 
--8--L-8--L-8--L--8--------------| 
--8--L-8--L-8--L--8--3--3--3--3--| 
--8--L-8--L-8--L--8--------------| 


                      
                             
----------------------------------------------| 
----------------------------------------------| 
----------------------------------------------| 
----------------------------------------------| 
--3-5-------------------3-5-------------------| 
------0--0--0--0--0--0------0--0--0--0--0--0--| 


                                            
----------------------------------|----------------------------------------| 
----------------------------------|----------------------------------------| 
--5-5-5-5-5-5-5-5-5-5-5-5-5-5-5-5-|--10-10-10-10-10-10-10-10-9-------------| 
--5-5-5-5-5-5-5-5-5-5-5-5-5-5-5-5-|---x--x--x--x--x--x--x--x-x-----/12\----| 
--3-3-3-3-3-3-3-3-3-3-3-3-3-3-3-3-|---8--8--8--8--8--8--8--8-7-----/12\----| 
----------------------------------|--------------------------------/12\----| 


                                      
-------------------------|-------------------------| 
-------------------------|-------------------------| 
-------------------------|-------------------------| 
-------------------------|-------------------------| 
-------------5--------L--|-------------5--------L--| 
--/6--L-0--L-------------|--/6--L-0--L-------------| 


                                                          
                                            
-------------------------------|--------------------------|--5----------------| 
-------------------------------|--------------------------|--6----------------| 
----------------------7--------|-------5--L-7----L---L----|--7----------------| 
--0--L-3--L-6--L------7--0--0--|--3--L-5--L-7----L---L----|--7----------------| 
--0--L-3--L-6--L-3--L-5--0--0--|--3--L-3--L-5----L---L----|--5----------------| 
--0--L-3--L-6--L---------0--0--|--3--L--------------------|-------------------| 


                                         
--L----------------|--L----------------|--L----------------| 
--L----------------|--L----------------|--L----------------| 
--L----------------|--L----------------|--L----------------| 
--L----------------|--L----------------|--L----------------| 
--L----------------|--L----------------|--L----------------| 
-------------------|-------------------|-------------------| 


                                          
--------------------------|----------------------------------| 
--------------------------|--15---L-15---L-15---L--15--------| 
--------------------------|--18b--L-18b--L-18b--L--18b--L----| 
--------------------------|----------------------------------| 
--------------3-3-3-3-3-3-|----------------------------------| 
--------------------------|----------------------------------| 


                            
--------------------------------------| 
---9---L--9---L--9---L---9------15-17-| 
--12b--L-12b--L-12b--L--12b--L--------| 
--------------------------------------| 
--------------------------------------| 
--------------------------------------| 


   |--3--|  |--3--|  |--3--|  |--3--|  |--3--|  |--3--|  |--3--|  |--3--| 
                                                  
--------------------------------------------------------------------------| 
--20-17-15-18-17-15-------------------------------------------------------| 
--------------------14-15-17-14-15-14-------------------------------------| 
--------------------------------------17-15-14-15-17-15-14-15-14----------| 
-----------------------------------------------------------------12-13-15-| 
--------------------------------------------------------------------------| 


   T  T  T  T  T  T  T  T  T  T  T  T            
-----------------------------------------------------| 
------------------------------------------------12s--| 
-----------------------------------------------------| 
-----------------------------------------------------| 
--12-13-12-10-12----12-13-12-10-12-------------------| 
-----------------15----------------15-12-------------| 


                                                   |--3--| 
                                                    
-----------------------------------|---------------------------------------| 
--18---L-17--L-----20--L-18--L-17--|--22--L-20--L-18-20-18-------18--L-22--| 
---------------17------------------|-----------------------21--L-----------| 
-----------------------------------|---------------------------------------| 
-----------------------------------|---------------------------------------| 
-----------------------------------|---------------------------------------| 


                                        
--------------------------------|---------------------------| 
--22--L\------------------------|---------------------------| 
-------------19--19--L\-----17--|--17--L\-----15--15--------| 
--------------------------------|---------------------------| 
--------------------------------|---------------------------| 
--------------------------------|---------------------------| 


   |--3--|  |--3-| |--3-| |-3-| |--3-| |-3-|  |--3--| |--3--| 
                                      
--------------------------------------------------------------| 
--13-11-10-11-10-8--------------------------------------------| 
-------------------9-10-9-7-----------------------------------| 
----------------------------9-7-9-10-9-7----------------------| 
-----------------------------------------9-7-10-12-10-9-------| 
--------------------------------------------------------12-10-| 


   T  T  T  T  T  T  T  T  T  T  T  T  T  T  T  T  T  T  T  T  T  T  T  T  T  T 
--18-18-18-18-18-18-18-18-17-17-17-17-17-17-17-17-------------------------------| 
--------------------------------------------------16-16-16-16-16-16-16-16-15-15-| 
--------------------------------------------------------------------------------| 
--------------------------------------------------------------------------------| 
--------------------------------------------------------------------------------| 
--------------------------------------------------------------------------------| 


                                            
                                            
--------------------------------|---------------------------------| 
------------3-------------------|---------------------------------| 
------------2-------------------|---------------------------------| 
--6--L-0--L-0----0--0--0--0--0--|--/6--L-0--L-0--L-/6--L-0--L-3-5-| 
--6--L-0--L-0----0--0--0--0--0--|--/6--L-0--L-0--L-/6--L-0--L-3-5-| 
--6--L-0--L-0----0--0--0--0--0--|--/6--L-0--L-0--L-/6--L-0--L-3-5-| 


                                            
                                            
--------------------------------|---------------------------------| 
------------3-------------------|---------------------------------| 
------------2-------------------|---------------------------------| 
--3--L-0--L-0----0--0--0--0--0--|--/6--L-0--L-0--L-/6--L-0--L-3-5-| 
--3--L-0--L-0----0--0--0--0--0--|--/6--L-0--L-0--L-/6--L-0--L-3-5-| 
--3--L-0--L-0----0--0--0--0--0--|--/6--L-0--L-0--L-/6--L-0--L-3-5-| 


                                            
                                            
--------------------------------|---------------------------------| 
------------3-------------------|---------------------------------| 
------------2-------------------|---------------------------------| 
--3--L-0--L-0----0--0--0--0--0--|--/6--L-0--L-0--L-/6--L-0--L-3-5-| 
--3--L-0--L-0----0--0--0--0--0--|--/6--L-0--L-0--L-/6--L-0--L-3-5-| 
--3--L-0--L-0----0--0--0--0--0--|--/6--L-0--L-0--L-/6--L-0--L-3-5-| 


                                            
                                            
--------------------------------|---------------------------------| 
------------3-------------------|---------------------------------| 
------------2-------------------|---------------------------------| 
--3--L-0--L-0----0--0--0--0--0--|--/6--L-0--L-0--L-/6--L-0--L-3-5-| 
--3--L-0--L-0----0--0--0--0--0--|--/6--L-0--L-0--L-/6--L-0--L-3-5-| 
--3--L-0--L-0----0--0--0--0--0--|--/6--L-0--L-0--L-/6--L-0--L-3-5-| 


                              
---------------------------------|--------------------| 
---------------------------------|--------------------| 
--/10--L-10--L-10----------------|--------------------| 
---------------------12--12--10--|--12----------------| 
---------------------------------|--------------------| 
---------------------------------|--------------------| 


                                                 
------------------------------------|--------------------------| 
------------------------------------|--------------------11-13-| 
--/12--L-12--L-12--12b--12----------|--------------------------| 
----------------------------15--14--|--15--------L----L--------| 
------------------------------------|--------------------------| 
------------------------------------|--------------------------| 


   |--3--|                                                              |--3--| 
         T  T  T  T  T  T  T  T  T  T  T  T  T  T  T  T  T  T  T  T       
--------------------------------------------------------------------------------| 
--15-13-11-11-13-11-10-10-11-10----------11-13-15-13-11-13-15-13-11-11-13-11-10-| 
--------------------------------12-10-12----------------------------------------| 
--------------------------------------------------------------------------------| 
--------------------------------------------------------------------------------| 
--------------------------------------------------------------------------------| 


   |--3--|  |--3-| |--3--| |--3--| 
                               
---------------------------------------------------| 
--10-11-10-----------------------------------------| 
-----------12-9-10-9-------------------------------| 
---------------------12-10-8-------7-8-7-----8-7-L-| 
-----------------------------12-10-------8-7-------| 
---------------------------------------------------| 


                                              
-------------------------------|-------------------15--L-13--L-12--| 
----------------11--L-10--L-8--|--15---L-13--L-11------------------| 
--10--L-9--L-7-----------------|-----------------------------------| 
-------------------------------|-----------------------------------| 
-------------------------------|-----------------------------------| 
-------------------------------|-----------------------------------| 


                                           
                                                 
--13----------------|----------------------------------------------| 
--------------------|----------------------------------------------| 
--------------------|----------------------------------------------| 
--------------------|----------------------------------------------| 
--------------------|--3-5-------------------3-5-------------------| 
--------------------|------0--0--0--0--0--0------0--0--0--0--0--0--| 


                         
                     
---------------------------------| 
---------------------------------| 
---------------------------------| 
--5--L-5--L-5--L--5--------------| 
--5--L-5--L-5--L--5--3--3--3--3--| 
--5--L-5--L-5--L--5--------------| 


                      
                             
----------------------------------------------| 
----------------------------------------------| 
----------------------------------------------| 
----------------------------------------------| 
--3-5-------------------3-5-------------------| 
------0--0--0--0--0--0------0--0--0--0--0--0--| 


                         
                     
---------------------------------| 
---------------------------------| 
---------------------------------| 
--8--L-8--L-8--L--8--------------| 
--8--L-8--L-8--L--8--3--3--3--3--| 
--8--L-8--L-8--L--8--------------| 


                      
                             
----------------------------------------------| 
----------------------------------------------| 
----------------------------------------------| 
----------------------------------------------| 
--3-5-------------------3-5-------------------| 
------0--0--0--0--0--0------0--0--0--0--0--0--| 


                                          
----------------------------------|-------------------------------------| 
----------------------------------|-------------------------------------| 
--5-5-5-5-5-5-5-5-5-5-5-5-5-5-5-5-|--10-10-10-10-10-10-10-10-9----------| 
--5-5-5-5-5-5-5-5-5-5-5-5-5-5-5-5-|---x--x--x--x--x--x--x--x-x----------| 
--3-3-3-3-3-3-3-3-3-3-3-3-3-3-3-3-|---8--8--8--8--8--8--8--8-7----------| 
----------------------------------|-------------------------------------| 


                                       
                                                    
-----------------------------------|-----------------------------------| 
-----------------------------------|-----------------------------------| 
--7--------------------------------|--7--------------------------------| 
--7--------0--0--0--0--0--0--0--0--|--7--------0--0--0--0--0--0--0--0--| 
--5--------0--0--0--0--0--0--0--0--|--5--------0--0--0--0--0--0--0--0--| 
-----------0--0--0--0--0--0--0--0--|-----------0--0--0--0--0--0--0--0--| 


                                       
                                                    
-----------------------------------|-----------------------------------| 
-----------------------------------|-----------------------------------| 
--7--------------------------------|--7--------------------------------| 
--7--------0--0--0--0--0--0--0--0--|--7--------0--0--0--0--0--0--0--0--| 
--5--------0--0--0--0--0--0--0--0--|--5--------0--0--0--0--0--0--0--0--| 
-----------0--0--0--0--0--0--0--0--|-----------0--0--0--0--0--0--0--0--| 


                                       
                                                    
-----------------------------------|-----------------------------------| 
-----------------------------------|-----------------------------------| 
--7--------------------------------|--7--------------------------------| 
--7--------0--0--0--0--0--0--0--0--|--7--------0--0--0--0--0--0--0--0--| 
--5--------0--0--0--0--0--0--0--0--|--5--------0--0--0--0--0--0--0--0--| 
-----------0--0--0--0--0--0--0--0--|-----------0--0--0--0--0--0--0--0--| 


                   
                                             
-----------------------------------|----------------------------------| 
-----------------------------------|----------------------------------| 
--7--------------------------------|----------------------------------| 
--7--------0--0--0--0--0--0--0--0--|----------------------------------| 
--5--------0--0--0--0--0--0--0--0--|----------------------------------| 
-----------0--0--0--0--0--0--0--0--|--0-0-0-0-2-2-2-2-3-3-3-3-5-5-5-5-| 


                                           
                                          
---------------------------------|-----------------------------| 
---------------------------------|-----------------------------| 
---------------------------------|-----------------------------| 
------------------0--0--0--0--0--|------------------0--/12\----| 
-------------5----0--0--0--0--0--|-------------5----0--/12\----| 
--/6--L-0--L------0--0--0--0--0--|--/6--L-0--L------0--/12\----| 


                                    
----------------------------|----------------------------| 
----------------------------|----------------------------| 
-----------------5--L-7--5--|-------7--L-5--L------------| 
--0--L-3--L-6--L-5--L-7--5--|--0--L-7--L-5--L-6--L-5--3--| 
--0--L-3--L-6--L-3--L-5--3--|--0--L-5--L-3--L-6--L-5--3--| 
--0--L-3--L-6--L------------|--0--L-----------6--L-5--3--| 


                                           
                                          
---------------------------------|-----------------------------| 
---------------------------------|-----------------------------| 
---------------------------------|-----------------------------| 
------------------0--0--0--0--0--|------------------0--/12\----| 
-------------5----0--0--0--0--0--|-------------5----0--/12\----| 
--/6--L-0--L------0--0--0--0--0--|--/6--L-0--L------0--/12\----| 


                                         
----------------------------|---------------------------|-------------------| 
----------------------------|---------------------------|-------------------| 
-----------------5--L-7--5--|-------7--L-6--L-5----L--L-|--L----------------| 
--0--L-3--L-6--L-5--L-7--5--|--0--L-7--L-6--L-5----L--L-|--L----------------| 
--0--L-3--L-6--L-3--L-5--3--|--0--L-5--L-4--L-3----L--L-|--L----------------| 
--0--L-3--L-6--L------------|--0--L---------------------|-------------------| 


                                         
-------------------|-------------------|-------------------|| 
-------------------|-------------------|-------------------|| 
--L----------------|--L----------------|--L----------------|| 
--L----------------|--L----------------|--L----------------|| 
--L----------------|--L----------------|--L----------------|| 
-------------------|-------------------|-------------------|| 


Guitar 3 

(tarts at 2:38) 

                                          
                                          
--------------------------------|-------------------------------| 
--------------------------------|-------------------------------| 
--------------------------------|--4--L-----------4--L----------| 
--3--L-3--L-3----3--3--3--3--3--|--4--L-3--L-3--L-4--L-3--L-3-5-| 
--3--L-3--L-3----3--3--3--3--3--|--2--L-3--L-3--L-2--L-3--L-3-5-| 
--3--L-3--L-3----3--3--3--3--3--|-------3--L-3--L------3--L-3-5-| 


                                          
                                          
--------------------------------|-------------------------------| 
--------------------------------|-------------------------------| 
--------------------------------|--4--L-----------4--L----------| 
--3--L-3--L-3----3--3--3--3--3--|--4--L-3--L-3--L-4--L-3--L-3-5-| 
--3--L-3--L-3----3--3--3--3--3--|--2--L-3--L-3--L-2--L-3--L-3-5-| 
--3--L-3--L-3----3--3--3--3--3--|-------3--L-3--L------3--L-3-5-| 


                                            
                                            
--------------------------------|---------------------------------| 
------------3-------------------|---------------------------------| 
------------2-------------------|---------------------------------| 
--3--L-0--L-0----0--0--0--0--0--|--/6--L-0--L-0--L-/6--L-0--L-3-5-| 
--3--L-0--L-0----0--0--0--0--0--|--/6--L-0--L-0--L-/6--L-0--L-3-5-| 
--3--L-0--L-0----0--0--0--0--0--|--/6--L-0--L-0--L-/6--L-0--L-3-5-| 


                                            
                                            
--------------------------------|---------------------------------| 
------------3-------------------|---------------------------------| 
------------2-------------------|---------------------------------| 
--3--L-0--L-0----0--0--0--0--0--|--/6--L-0--L-0--L-/6--L-0--L-3-5-| 
--3--L-0--L-0----0--0--0--0--0--|--/6--L-0--L-0--L-/6--L-0--L-3-5-| 
--3--L-0--L-0----0--0--0--0--0--|--/6--L-0--L-0--L-/6--L-0--L-3-5-| 


   
-------------------|-------|-------|-------|-------|-------|-------|-------| 
-------------------|-------|-------|-------|-------|-------|-------|-------| 
-------------------|-------|-------|-------|-------|-------|-------|-------| 
--3----------------|-------|-------|-------|-------|-------|-------|-------| 
--3----------------|-------|-------|-------|-------|-------|-------|-------| 
--3----------------|-------|-------|-------|-------|-------|-------|-------| 
k 
		  

See also:

tabs Isaac Albeniz - Asturias (Leyenda) tabs Iron Butterfly - IronButterfly-in A Gadda Da Vida tabs Black Crowes - Jealous Again tabs Chris Cornell - Black Hole Sun tabs Hoobastank - The Reason Acoustic tabs Black Crowes - Hard To Handle
e-chords

Other versions:

tabs Stone Sour - Gone Sovereign
auto scroll beats size up size down change color hide chords drawings
tab show chords e-chords YouTube Clip e-chords hide all tabs e-chords go to top tab

share