Stone Sour

Check This One Out

Stone Sour

tabs

by  VICTBORGES

save to print version add songbook text version e-mail correct tuner
chordsukulelecavacokeyboardtabbassdrumsharmonicaflute Guitar Pro
close

there isn't a video lesson for this song

chords

Check This One Out

	  		 
C#||--------------------------------|-------------------------------|| 
G#||--------------------------------|-------------------------------|| 
E ||--------------------------------|------------------------------*|| 
B ||--------------------------------|------------------------------*|| 
F#||--3/-0-0-0-0-3/-0-0-0-0-3/0-0-0-|--3/-0-0-0-0-3/-0-0-0-0-3--6---|| 
B ||--3/-0-0-0-0-3/-0-0-0-0-3/0-0-0-|--3/-0-0-0-0-3/-0-0-0-0-3--6---|| 



 
                                                                        
--------------------|------------------------|------------------------| 
--------------------|------------------------|------------------------| 
--------------------|------------------------|------------------------| 
--------------------|------------------------|------------------------| 
--------3--2--------|--0----0--0--0--6----0--|--0----0----1--0--1--0--| 
--------3--2--------|--0----0--0--0--6----0--|--0----0----1--0--1--0--| 



 
                                                                            
------------------------|------------------------|------------------------| 
------------------------|------------------------|------------------------| 
------------------------|------------------------|------------------------| 
------------------------|------------------------|------------------------| 
--0----0--0--0--6----0--|--0----0--0--------5~---|--0----0--0--0--6----0--| 
--0----0--0--0--6----0--|--0----0--0--0--3-------|--0----0--0--0--6----0--| 



 
                                                                            
------------------------|------------------------|------------------------| 
------------------------|------------------------|------------------------| 
------------------------|------------------------|------------------------| 
------------------------|------------------------|------------------------| 
--0----0----1--0--1--0--|--0----0--0--0--6----0--|--0----0--0--------5~---| 
--0----0----1--0--1--0--|--0----0--0--0--6----0--|--0----0--0--0--3-------| 



 
                                                                            
------------------------|------------------------|------------------------| 
------------------------|------------------------|------------------------| 
------------------------|------------------------|------------------------| 
------------------------|------------------------|------------------------| 
--0--0----0-0-0--0------|--0--0----0-0-1----4----|--0--0----0-0-0--0------| 
--0--0----0-0-0--0------|--0--0----0-0-1----4----|--0--0----0-0-0--0------| 



 
                                                                              
--------------------------|------------------------|------------------------| 
--------------------------|------------------------|------------------------| 
--------------------------|------------------------|------------------------| 
--------------------------|------------------------|------------------------| 
--0--0----0-0-------6--5--|--0--0----0-0-0--0------|--0--0----0-0-1----4----| 
--0--0----0-0-6--5--------|--0--0----0-0-0--0------|--0--0----0-0-1----4----| 



 
                                                                          
------------------------|--------------------------|--------------------| 
------------------------|--------------------------|--------------------| 
------------------------|--------------------------|--3------2----------| 
------------------------|--------------------------|--x------x----------| 
--0--0----0-0-0--0------|--0--0----0-0-------6--5--|--1------0----------| 
--0--0----0-0-0--0------|--0--0----0-0-6--5--------|--------------------| 



 
                                                                    
--------------------|--------------------|------------------------| 
--------------------|--------------------|------------------------| 
--3------2----------|--3------2----------|------------------------| 
--x------x----------|--x------x----------|-----2------------------| 
--1------0----------|--1------0----------|--0-----2--0--3--2~-----| 
--------------------|--------------------|------------------------| 



 
                                                                
--------------------|--------------------|--------------------| 
--------------------|--------------------|--------------------| 
--3------2----------|--3------2----------|--3------2----------| 
--x------x----------|--x------x----------|--x------x----------| 
--1------0----------|--1------0----------|--1------0----------| 
--------------------|--------------------|--------------------| 



 
                                                                            
------------------------|-----------------------|-------------------------| 
------------------------|-----------------------|-------------------------| 
------------------------|-----------------------|-------------------------| 
------------------------|-----------------------|-------------------------| 
------------------------|--3--5----0------3--0--|--3--5----0--6--5--3--0--| 
--3--2--1--0--6--5~-----|--3--5----0------3--0--|--3--5----0--6--5--3--0--| 



 
                                                                           
-----------------------|-------------------------|-----------------------| 
-----------------------|-------------------------|-----------------------| 
-----------------------|-------------------------|-----------------------| 
-----------------------|-------------------------|-----------------------| 
--3--5----0------3--0--|--3--5----0--6--5--3--0--|--3--5----0------3--0--| 
--3--5----0------3--0--|--3--5----0--6--5--3--0--|--3--5----0------3--0--| 



 
                                                                            
-------------------------|-----------------------|------------------------| 
-------------------------|-----------------------|------------------------| 
-------------------------|-----------------------|------------------------| 
-------------------------|-----------------------|------------------------| 
--3--5----0--6--5--3--0--|--3--5----0------3--0--|--3--5----0--6--5--3----| 
--3--5----0--6--5--3--0--|--3--5----0------3--0--|--3--5----0--6--5--3----| 



 
                                                                              
|-------------------------|------------------------|------------------------| 
|-------------------------|------------------------|------------------------| 
|*------------------------|------------------------|------------------------| 
|*------------------------|------------------------|------------------------| 
|---0----0--0--0--6----0--|--0----0----1--0--1--0--|--0----0--0--0--6----0--| 
|---0----0--0--0--6----0--|--0----0----1--0--1--0--|--0----0--0--0--6----0--| 



 
                                                                               
-------------------------||-------------------------|------------------------| 
-------------------------||-------------------------|------------------------| 
------------------------*||*------------------------|------------------------| 
------------------------*||*------------------------|------------------------| 
--0----0--0--------5~----||---0--0----0-0-0--0------|--0--0----0-0-1----4----| 
--0----0--0--0--3--------||---0--0----0-0-0--0------|--0--0----0-0-1----4----| 



 
                                                                            
------------------------|---------------------------||--------------------| 
------------------------|---------------------------||--------------------| 
------------------------|--------------------------*||--3------2----------| 
------------------------|--------------------------*||--x------x----------| 
--0--0----0-0-0--0------|--0--0----0-0-------6--5---||--1------0----------| 
--0--0----0-0-0--0------|--0--0----0-0-6--5---------||--------------------| 



 
                                                                    
--------------------|--------------------|------------------------| 
--------------------|--------------------|------------------------| 
--3------2----------|--3------2----------|------------------------| 
--x------x----------|--x------x----------|-----2------------------| 
--1------0----------|--1------0----------|--0-----2--0--3--2~-----| 
--------------------|--------------------|------------------------| 



 
                                                                
--------------------|--------------------|--------------------| 
--------------------|--------------------|--------------------| 
--3------2----------|--3------2----------|--3------2----------| 
--x------x----------|--x------x----------|--x------x----------| 
--1------0----------|--1------0----------|--1------0----------| 
--------------------|--------------------|--------------------| 



 
                                                                            
------------------------|-----------------------|-------------------------| 
------------------------|-----------------------|-------------------------| 
------------------------|-----------------------|-------------------------| 
------------------------|-----------------------|-------------------------| 
------------------------|--3--5----0------3--0--|--3--5----0--6--5--3--0--| 
--3--2--1--0--6--5~-----|--3--5----0------3--0--|--3--5----0--6--5--3--0--| 



 
                                                                           
-----------------------|-------------------------|-----------------------| 
-----------------------|-------------------------|-----------------------| 
-----------------------|-------------------------|-----------------------| 
-----------------------|-------------------------|-----------------------| 
--3--5----0------3--0--|--3--5----0--6--5--3--0--|--3--5----0------3--0--| 
--3--5----0------3--0--|--3--5----0--6--5--3--0--|--3--5----0------3--0--| 



 
                                                                             
-------------------------|-----------------------|-------------------------| 
-------------------------|-----------------------|-------------------------| 
-------------------------|-----------------------|-------------------------| 
-------------------------|-----------------------|-------------------------| 
--3--5----0--6--5--3--0--|--3--5----0------3--0--|--3--5----0--6--5--3--0--| 
--3--5----0--6--5--3--0--|--3--5----0------3--0--|--3--5----0--6--5--3--0--| 



 
                             3x                            3x 
|----------------------------||----------------------------|| 
|----------------------------||----------------------------|| 
|*--------------------------*||*--------------------------*|| 
|*--------------------------*||*--------------------------*|| 
|----------------------------||---5--6--5--0--1--2--3--0---|| 
|---5--6--5--0--1--2--3--0---||---5--6--5--0--1--2--3--0---|| 



 
                                                                            
------------------------|------------------------|------------------------| 
------------------------|------------------------|------------------------| 
------------------------|------------------------|------------------------| 
------------------------|------------------------|------------------------| 
--0----0--0--0--6----0--|--0----0----1--0--1--0--|--0----0--0--0--6----0--| 
--0----0--0--0--6----0--|--0----0----1--0--1--0--|--0----0--0--0--6----0--| 



 
                                                                            
------------------------|------------------------|------------------------| 
------------------------|------------------------|------------------------| 
------------------------|------------------------|------------------------| 
------------------------|------------------------|------------------------| 
--0----0--0--------5~---|--0----0--0--0--6----0--|--0----0----1--0--1--0--| 
--0----0--0--0--3-------|--0----0--0--0--6----0--|--0----0----1--0--1--0--| 



 
                                                                            
------------------------|------------------------|------------------------| 
------------------------|------------------------|------------------------| 
------------------------|------------------------|------------------------| 
------------------------|------------------------|------------------------| 
--0----0--0--0--6----0--|--0----0--0--------5~---|--0--0----0-0-0--0------| 
--0----0--0--0--6----0--|--0----0--0--0--3-------|--0--0----0-0-0--0------| 



 
                                                                              
------------------------|------------------------|--------------------------| 
------------------------|------------------------|--------------------------| 
------------------------|------------------------|--------------------------| 
------------------------|------------------------|--------------------------| 
--0--0----0-0-1----4----|--0--0----0-0-0--0------|--0--0----0-0-------6--5--| 
--0--0----0-0-1----4----|--0--0----0-0-0--0------|--0--0----0-0-6--5--------| 



 
                                                                            
------------------------|------------------------|------------------------| 
------------------------|------------------------|------------------------| 
------------------------|------------------------|------------------------| 
------------------------|------------------------|------------------------| 
--0--0----0-0-0--0------|--0--0----0-0-1----4----|--0--0----0-0-0--0------| 
--0--0----0-0-0--0------|--0--0----0-0-1----4----|--0--0----0-0-0--0------| 



 
                                                                      
--------------------------|--------------------|--------------------| 
--------------------------|--------------------|--------------------| 
--------------------------|--3------2----------|--3------2----------| 
--------------------------|--x------x----------|--x------x----------| 
--0--0----0-0-------6--5--|--1------0----------|--1------0----------| 
--0--0----0-0-6--5--------|--------------------|--------------------| 



 
                                                                    
--------------------|------------------------|--------------------| 
--------------------|------------------------|--------------------| 
--3------2----------|------------------------|--3------2----------| 
--x------x----------|-----2------------------|--x------x----------| 
--1------0----------|--0-----2--0--3--2~-----|--1------0----------| 
--------------------|------------------------|--------------------| 



 
                                                                    
--------------------|--------------------|------------------------| 
--------------------|--------------------|------------------------| 
--3------2----------|--3------2----------|------------------------| 
--x------x----------|--x------x----------|------------------------| 
--1------0----------|--1------0----------|------------------------| 
--------------------|--------------------|--3--2--1--0--6--5~-----| 



 
                                                                           
-----------------------|-------------------------|-----------------------| 
-----------------------|-------------------------|-----------------------| 
-----------------------|-------------------------|-----------------------| 
-----------------------|-------------------------|-----------------------| 
--3--5----0------3--0--|--3--5----0--6--5--3--0--|--3--5----0------3--0--| 
--3--5----0------3--0--|--3--5----0--6--5--3--0--|--3--5----0------3--0--| 



 
                                                                             
-------------------------|-----------------------|-------------------------| 
-------------------------|-----------------------|-------------------------| 
-------------------------|-----------------------|-------------------------| 
-------------------------|-----------------------|-------------------------| 
--3--5----0--6--5--3--0--|--3--5----0------3--0--|--3--5----0--6--5--3--0--| 
--3--5----0--6--5--3--0--|--3--5----0------3--0--|--3--5----0--6--5--3--0--| 



 
                                                  
-----------------------|------------------------| 
-----------------------|------------------------| 
-----------------------|------------------------| 
-----------------------|------------------------| 
--3--5----0------3--0--|--3--5----0--6--5--3----| 
--3--5----0------3--0--|--3--5----0--6--5--3----| 



 
                                                                  3x 
|---------------------------------|-------------------------------|| 
|---------------------------------|-------------------------------|| 
|*--------------------------------|------------------------------*|| 
|*--------------------------------|------------------------------*|| 
|---3/-0-0-0-0-3/-0-0-0-0-3/0-0-0-|--3/-0-0-0-0-3/-0-0-0-0-3--6---|| 
|---3/-0-0-0-0-3/-0-0-0-0-3/0-0-0-|--3/-0-0-0-0-3/-0-0-0-0-3--6---|| 
		  

See also:

tabs Wheatus - Teenage Dirtbag tabs James Blunt - Wisemen tabs Candlebox - Far behind tabs Slash Snakepit - Godfather Theme tabs Hoobastank - Disappear tabs Iron Butterfly - IronButterfly-in A Gadda Da Vida
e-chords

Other versions:

tabs Stone Sour - Check This One Out
auto scroll beats size up size down change color hide chords drawings
tab show chords e-chords YouTube Clip e-chords hide all tabs e-chords go to top tab

share