Stone Sour

Bother (ver. 2)

Stone Sour

tabs Beginner beginner

by  TRROJANMAN666

save to print version add songbook text version e-mail correct tuner
chordsukulelecavacokeyboardtabbassdrumsharmonicaflute Guitar Pro
close

there isn't a video lesson for this song

chords

Bother (ver. 2)

	  		Stone Sour - Bother 
Tuning: Eb  Ab  Db  Gb  Bb  eb (1/2 step down) 
LISTEN TO THE CD FOR THE TIMING. 
first off i can take no credit for this at all because i took other peoples 
tabs and just added some small things.I do think this is right and if not 100% 
then dam close. 
~enjoy~ 
 
 
Intro 1: 
-|7---------------------|-7---------------------|- 
-|7h8---7-7h8h7---------|-7h8-8--7-7h8h7--------|- 
-|7h9---7-------9p7-----|-7h9-9--7-------9p7----|- x3 
-|7h9---7-----------9---|-7h9-9--7-----------9--|- 
-|7-7---5---------------|-7-7----5--------------|- 
-|7---------------------|-7---------------------|- 
 
 
 
Verse 1: 
-|-----------------------------------------------------------------------|- 
-|-8------7--------8------7----------------------8--8--8---7--7h8h7------|- 
-|-9------7--------9------7-------0--0-0-0-0-0---9--9--9---7--------9p7--|- 
-|-9------7--------9------7-------0--0-0-0-0-0---9--9--9---7------------9|- 
-|-7------5--------7------5-------2--2-2-2-2-2---7--7--7---5-------------|- 
-|--------------------------------3--3-3-3-3-3---------------------------|- 
  Wish I was too dead to cry, My self-affliction  fades_______ 
 
-|----------------------------------------------------------------------|- 
-|-8----------7-------8-----7-------------------------7-7-7-7-7-7-------|- 
-|-9----------7-------9-----7-----0-0-0-0-0-0-0-0-----7-7-7-7-7-7-------|- 
-|-9----------7-------9-----7-----0-0-0-0-0-0-0-0-----7-7-7-7-7-7-------|- 
-|-7----------5-------7-----5-----2-2-2-2-2-2-2-2-----5-5-5-5-5-5-------|- 
-|--------------------------------3-3-3-3-3-3-3-3-----------------------|- 
  Stones to throw at my creator, Masochists   to     which I cater 
 
 
 
Chorus 1: 
-|--------------------------------------------------------------------|- 
-|------------8-------7---------8-----------7--7-7-7-7-7-7------------|- 
-|------------9-------7---------9-----------7--7-7-7-7-7-7------------|- 
-|------------9-------7---------9-----------7--7-7-7-7-7-7------------|- 
-|------------7-------5---------7-----------5--5-5-5-5-5-5------------|- 
-|--------------------------------------------------------------------|- 
  You don't need to bother, I don't need to be 
 
-|-----------------------------------------------------------------------|- 
-|-8--------------------7------1--1--1----1---1----7--7--7-----7---7---7-|- 
-|-9---------7----7-----7------0--0--0----0---0----7--7--7-----7---7---7-|- 
-|-9---------7----7-----7------2--2--2----2---2----7--7--7-----7---7---7-|- 
-|-7---------5----5-----5------3--3--3----3---3----5--5--5-----5---5---5-|- 
-|-----------------------------------------------------------------------|- 
  I'll keep slipping farther, But once  I hold on, I won't let go 'till it bleeds 
 
 
 
Intro 2: 
-|7---------------------|-7---------------------|- 
-|7h8---7-7h8h7---------|-7h8-8--7-7h8h7--------|- 
-|7h9---7-------9p7-----|-7h9-9--7-------9p7----|- x3 
-|7h9---7-----------9---|-7h9-9--7-----------9--|- 
-|7-7---5---------------|-7-7----5--------------|- 
-|7---------------------|-7---------------------|- 
 
 
 
Verse 2: 
-|-----------------------------------------------------------------------|- 
-|-8------7--------8------7----------------------8--8--8---7--7h8h7------|- 
-|-9------7--------9------7-------0--0-0-0-0-0---9--9--9---7--------9p7--|- 
-|-9------7--------9------7-------0--0-0-0-0-0---9--9--9---7------------9|- 
-|-7------5--------7------5-------2--2-2-2-2-2---7--7--7---5-------------|- 
-|--------------------------------3--3-3-3-3-3---------------------------|- 
  Wish I was too dead to care, If indeed I cared at all_______ 
 
-|-----------------------------------------------------------------------|- 
-|-8----------7-------8-----7-------------------------7-7-7-7-7-7--------|- 
-|-9----------7-------9-----7-----0-0-0-0-0-0-0-0-----7-7-7-7-7-7--------|- 
-|-9----------7-------9-----7-----0-0-0-0-0-0-0-0-----7-7-7-7-7-7--------|- 
-|-7----------5-------7-----5-----2-2-2-2-2-2-2-2-----5-5-5-5-5-5--------|- 
-|--------------------------------3-3-3-3-3-3-3-3------------------------|- 
  Never had a voice to protest, So you fed me shit to digest_____ 
 
 
 
Bridge: 
-|----------------------------------------------------------------------|- 
-|-8---8---8--8-8-8-8-8-8-8---5---5---5--5-5-5-5-5-5-5------------------|- 
-|-9---9---9--9-9-9-9-9-9-9---5---5---5--5-5-5-5-5-5-5------------------|- 
-|-9---9---9--9-9-9-9-9-9-9---5---5---5--5-5-5-5-5-5-5------------------|- 
-|-7---7---7--7-7-7-7-7-7-7---3---3---3--3-3-3-3-3-3-3------------------|- 
-|----------------------------------------------------------------------|- 
       I wish I had a reason; My flaws are open season 
 
-|----------------------------------------------------------------------|- 
-|-3---3---3--3-3-3-3-3-3-3---7---7---7--7--7--7--7--7--7--7------------|- 
-|-3---3---3--3-3-3-3-3-3-3---7---7---7--7--7--7--7--7--7--7------------|- 
-|-3---3---3--3-3-3-3-3-3-3---7---7---7--7--7--7--7--7--7--7------------|- 
-|-1---1---1--1-1-1-1-1-1-1---5---5---5--5--5--5--5--5--5--5------------|- 
-|----------------------------------------------------------------------|- 
   For this I gave up trying; One good turn deserves my dying 
 
 
 
Chorus 2: 
-|-----------------------------------------------------------------------|- 
-|------------8-------7---------8-----------7--7-7-7-7-7-7---------------|- 
-|------------9-------7---------9-----------7--7-7-7-7-7-7---------------|- 
-|------------9-------7---------9-----------7--7-7-7-7-7-7---------------|- 
-|------------7-------5---------7-----------5--5-5-5-5-5-5---------------|- 
-|-----------------------------------------------------------------------|- 
  You don't need to bother, I don't need to be 
 
-|-------------------------------------------------------------------------|- 
-|-8--------------------7------1--1--1----1---1----7--7--7-----7---7---7---|- 
-|-9---------7----7-----7------0--0--0----0---0----7--7--7-----7---7---7---|- 
-|-9---------7----7-----7------2--2--2----2---2----7--7--7-----7---7---7---|- 
-|-7---------5----5-----5------3--3--3----3---3----5--5--5-----5---5---5---|- 
-|-------------------------------------------------------------------------|- 
  I'll keep slipping farther, But once  I hold on, I won't let go 'till it bleeds 
 
 
 
Solo(1:58): 
-|7----------------------------------------------------------------------|- 
-|7h8---10p8p7--8~------7h8~-----------------8-------------------------8-|- 
-|7h9--------------7h9------------------9b---9------9------------------9-|- 
-|7h9-------------------------------7h9------9--7h9---9----------7h9---9-|- 
-|7-7--------------------------5h7~----------7--------------5h7~-------7-|- 
-|7------------------------5h7--------------------------5h7--------------|- 
 
-|----------------------------------------------------------------------|- 
-|--10b--8h10p8p7---------------------8---------------------------------|- 
-|------------------------------------9---------------------------------|- 
-|-----------------------------7h9----9---------------------------------|- 
-|-----------------------5h7~---------7---------------------------------|- 
-|------------------5h7-------------------------------------------------|- 
 
 
 
 
Intro 3: 
-|---------------------|-----------------------|- 
-|-8---7-7h8h7---------|---8-8--7-7h8h7--------|- 
-|-9---7-------9p7-----|---9-9--7-------9p7----|- x3 
-|-9---7-----------9---|---9-9--7-----------9--|- 
-|-7---5---------------|---7----5--------------|- 
-|---------------------|-----------------------|- 
 
 
 
 
 
Verse 2: 
-|-----------------------------------------------------------------------|- 
-|-8------7--------8------7----------------------8--8--8---7--7h8h7------|- 
-|-9------7--------9------7-------0--0-0-0-0-0---9--9--9---7--------9p7--|- 
-|-9------7--------9------7-------0--0-0-0-0-0---9--9--9---7------------9|- 
-|-7------5--------7------5-------2--2-2-2-2-2---7--7--7---5-------------|- 
-|--------------------------------3--3-3-3-3-3---------------------------|- 
  Wish I died instead of lived, A zombie hides my face_______ 
 
-|--------------------------------------------------------------------|- 
-|-8----------7-------8-----7---------------------------7-7-7-7-7-7---|- 
-|-9----------7-------9-----7-------0-0-0-0-0-0-0-0-----7-7-7-7-7-7---|- 
-|-9----------7-------9-----7-------0-0-0-0-0-0-0-0-----7-7-7-7-7-7---|- 
-|-7----------5-------7-----5-------2-2-2-2-2-2-2-2-----5-5-5-5-5-5---|- 
-|----------------------------------3-3-3-3-3-3-3-3-------------------|- 
  Shell forgotton with it memories, Daries left with crypic entries 
 
 
 
 
Chorus 3: 
-|-----------------------------------------------------------------------|- 
-|------------8-------7---------8-----------7--7-7-7-7-7-7---------------|- 
-|------------9-------7---------9-----------7--7-7-7-7-7-7---------------|- 
-|------------9-------7---------9-----------7--7-7-7-7-7-7---------------|- 
-|------------7-------5---------7-----------5--5-5-5-5-5-5---------------|- 
-|-----------------------------------------------------------------------|- 
  You don't need to bother, I don't need to be 
 
-|-------------------------------------------------------------------------|- 
-|-8--------------------7------1--1--1----1---1----7--7--7-----7---7---7---|- 
-|-9---------7----7-----7------0--0--0----0---0----7--7--7-----7---7---7---|- 
-|-9---------7----7-----7------2--2--2----2---2----7--7--7-----7---7---7---|- 
-|-7---------5----5-----5------3--3--3----3---3----5--5--5-----5---5---5---|- 
-|-------------------------------------------------------------------------|- 
  I'll keep slipping farther, But once  I hold on, I won't let go 'till it bleeds 
 
 
 
 
Chorus 4: 
-|-----------------------------------------------------------------------|- 
-|------------8-------7---------8-----------7--7-7-7-7-7-7---------------|- 
-|------------9-------7---------9-----------7--7-7-7-7-7-7---------------|- 
-|------------9-------7---------9-----------7--7-7-7-7-7-7---------------|- 
-|------------7-------5---------7-----------5--5-5-5-5-5-5---------------|- 
-|-----------------------------------------------------------------------|- 
  You don't need to bother, I don't need to be 
 
-|-------------------------------------------------------------------------|- 
-|-8--------------------7--------------------------------------------------|- 
-|-9---------7----7-----7--------------------------------------------------|- 
-|-9---------7----7-----7--------------------------------------------------|- 
-|-7---------5----5-----5--------------------------------------------------|- 
-|-------------------------------------------------------------------------|- 
  I'll keep slipping farther, But once  I hold on, I won't let go 'till it bleeds 
 
 
 
Intro 3: 
-|7---------------------|-7---------------------|- 
-|7h8---7-7h8h7---------|-7h8-8--7-7h8h7--------|- 
-|7h9---7-------9p7-----|-7h9-9--7-------9p7----|- x3 
-|7h9---7-----------9---|-7h9-9--7-----------9--|- 
-|7-7---5---------------|-7-7----5--------------|- 
-|7---------------------|-7---------------------|- 
 |END ON: 
-|-------|- 
-|-8-----|- 
-|-9-----|- LET RING... 
-|-9-----|- 
-|-7-----|- 
-|-------|- 
 
 
THATS IT YOU HAVE DONE IT... BELOW IS A ORDER LIST SO ITS EASY TO LOOK AT 
ONCE YOU KNOW HOW TO PLAY IT. 
 
Order: 
Intro 
Verse 
Chorus 
Intro 
Verse 
Bridge 
Chorus 
Solo 
Intro 
Verse 
Chorus 
Chorus 
Intro 
		  

See also:

tabs Black Label Society - Stillborn (Ac˙stico) tabs Interpol - Obstacle (ver. 1) tabs Avantasia - Farewell tabs Lifehouse - Hanging by a moment tabs Disturbed - Down With The Sickness tabs Queensr che - Silent Lucidity
e-chords

Other versions:

tabs Stone Sour - Bother tabs Stone Sour - Bother (ver. 2) tabs Stone Sour - Bother 0 tabs Washya - Bothered
auto scroll beats size up size down change color hide chords drawings
tab show chords e-chords YouTube Clip e-chords hide all tabs e-chords go to top tab

share