Stone Gods

Burn The Witch

Stone Gods

tabs Expert expert

by  CARLLUZ

save to print version add songbook text version e-mail correct tuner
chordsukulelecavacokeyboardtabbassdrumsharmonicaflute Guitar Pro
close

there isn't a video lesson for this song

chords

Burn The Witch

	  		
Introdução 

E|-----|-------|-----|-------|-----|-------|-------|---------|-----| 
B|-----|-------|-----|-------|-----|-------|-------|---------|-----| 
G|-----|-------|-----|-------|-----|-------|-------|---------|-----| 
D|--2--|--(2)--|--5--|--(5)--|--2--|--(2)--|-5--5--|-5-5-5-5-|--2--| 
A|--2--|--(2)--|--3--|--(3)--|--2--|--(2)--|-3--3--|-3-3-3-3-|--2--| 
E|--0--|--(0)--|--3--|--(3)--|--0--|--(0)--|-3--3--|-3-3-3-3-|--0--| 

Riff 1 

E|----------------------------------------------------------------| 
B|----------------------------------------------------------------| 
G|----------------------------------------------------------------| 
D|-2--------------------------------------------------------------| 
A|-2--2-2---5h7--7-7-7--5-0----2-2-2--5h7--7-7-7--5-0----2-2-2----| 
E|-0--0-0---0----0-0-0------3b-0-0-0--0----0-0-0------3b-0-0-0----| 

E|---------------------------------------| 
B|---------------------------------------| 
G|---------------------------------------| 
D|---------------------------------------| 
A|--5h7--7-7-7--5-0----2-2-2---X-4-X-5---| 
E|--0----0-0-0------3b-0-0-0---X-2-X-3---| 
                     PM* * * 
Verso 
                                 X4 
E|---------------------------------|-----------------| 
B|---------------------------------|-----------------| 
G|o-------------------------------o|-----------------| 
D|o--2-------------------------2--o|-----------------|    x2 
A|---2--2-2-2-2-2-2-2-2-2-2----2---|--2-2-2-X-4---5--| 
E|---0--0-0-0-0-0-0-0-0-0-0-3b-0---|--0-0-0-X-2---3--| 
      PM* * * * * * * * * *           * * * 


E|-------------------------------|----------------------| 
B|-------------------------------|----------------------| 
G|--2----------------------------|----------------------| 
D|--2--2-2-2-2-2-2-2-2-2-2----2--|-2-2-2-2-2-2-3-4--4-4-| 
A|--0--0-0-0-0-0-0-0-0-0-0-3b-0--|-0-0-0-0-0-0-1-2--2-2-| 
E|-------------------------------|----------------------| 
    PM * * * * * * * * * *         * * * * * * 


E|-------------------------------|---------------| 
B|-------------------------------|---------------| 
G|--4----------------------------|-------4----2--| 
D|--4--4-4-4-4-4-4-4-4-4-4----4--|-4-4-4-4--3-2--| 
A|--2--2-2-2-2-2-2-2-2-2-2-5b-2--|-2-2-2-2--1-0--| 
E|-------------------------------|---------------| 
    PM * * * * * * * * * *         * * * 



                                      Enjoy the screams 
E|-------------------------------|----------------------| 
B|-------------------------------|----------------------| 
G|--2----------------------------|--0-------------------| 
D|--2--2-2-2-2-2-2-2-2-2-2----2--|--0-----5--4--3-------| 
A|--0--0-0-0-0-0-0-0-0-0-0-3b-0--|--2-----5--4--3-------| 
E|-------------------------------|--3-----3--2--1-------| 
    PM * * * * * * * * * * 



Um Riff do Finzinho ! 

E|-----------------------------------------| 
B|-----------------------------------------| 
G|-----------------------------------------| 
D|-----------------------------------------| 
A|-------5-------4-------3--3-2-0----------| 
E|-0-0-0---0-0-0---0-0-0----------3-2-0----| 
		  

See also:

tabs Iron Maiden - Alexander the Great tabs Iron Maiden - Can I Play with Madness tabs Ozzy Osbourne - Mr. Crowley tabs Ozzy Osbourne - Crazy Train (intro) tabs Black Sabbath - War pigs (simplificada) tabs Firehouse - I Live My Life For You (ver. 1)
e-chords

Other versions:

tabs Stone Gods - Burn The Witch
auto scroll beats size up size down change color hide chords drawings
tab show chords e-chords YouTube Clip e-chords hide all tabs e-chords go to top tab

share