Sting

Every Breath You Take Tab

Sting

Difficulty: ExpertExpert

by Jakson%5FJackson

tuner correct add songbook print version text version save to e-mail
chordsukuleleukulelecavacokeyboardtabbassdrumsharmonicsflute Guitar Pro
close
how-to-play-every-breath-you-take-by-the-police

there is a video lesson for this song

chords

Every Breath You Take

Year: 2001 - Album: ...All This Time

(Sting)

  		O dedilhado da musica 
 
E------------------------------| 
B---------------0--------------| 
G---------2--------2-------2---| 
D------0-----0--------0--------| 
A------------------------------| 
E---3--------------------------| 
 
Repete o riff acima 2 vezes 
 
 
E------------------------------| 
B------------------------------| 
G--------------0---------------| 
D---------4--------4-------4---| 
A------2-----2---------2-------| 
E--0---------------------------| 
 
Repete o riff acima 2 vezes 
 
E------------------------------| 
B---------3------1-------------| 
G--------------------0-------0-| 
D-----0------0-----------0-----| 
A--3---------------------------| 
E------------------------------| 
 
E-----------0--------------------| 
B-------------------3------------| 
G-------2-------2-------2-------2| 
D---0-----------------------0----| 
A--------------------------------| 
E--------------------------------| 
 
 
E------------------------------| 
B---------------0--------------| 
G---------2--------2-------2---| 
D------0-----0--------0--------| 
A------------------------------| 
E---3--------------------------| 
 
repet o riff acima 2 vezes e volta pro começo. 
 
 
Para a parte que cata: 
Oh can't you see you belong me..... 
 
usa esses power chords  
 
   C5             G5 
E----------|  E----------|   
B----------|  B----------| 
G----5-----|  G----------| 
D----5-----|  D----5-----| 
A----3-----|  A----5-----| 
E----------|  E----3-----| 
  
 
    A5            D5 
E----------|  E----------| 
B----------|  B----------| 
G----------|  G----7-----| 
D----7-----|  D----7-----| 
A----7-----|  A----5-----| 
E----5-----|  E----------| 
 
Estes são só os acordes, O ritmo vc tem q ouvi a musica. 
 
 
Aqui fica um riff pra tocar durante a musica. 
 
E-------------------|-------------------| 
B--0--1--0----------|-0-0--1--0---------| 
G------------2---0--|-------------------| 
D-------------------|------------0-0-2-2| 
A-------------------|-------------------| 
E-------------------|-------------------| 
Every breath you take..... 
 
E------------------|------------------| 
B-------0-1-0------|-------1-0--------| 
G--------------0---|--0-0-------2-----| 
D--2-2-------------|------------------| 
A------------------|------------------| 
E------------------|------------------| 
 
E----------------------------| 
B----------------------------| 
G-2--0--2(bend) -------------| 
D-----------------0---2-2-2--| 
A----------------------------| 
E----------------------------| 
 
Toca isso até na 1ª parte antes Refrão. 
No Refrão usa-se os Powers Chords e toca isso. 
 
E----------------------------| 
B-------------3--3/5---------| 
G-------0-2-4----------------| 
D--0-2-----------------------| 
A----------------------------| 
E----------------------------| 
 Oh! can't you see 
 
E-----------------------------| 
B--5--5--5---3----------------| 
G--------------2/4------------| 
D-----------------------------| 
A-----------------------------| 
E-----------------------------| 
 
E--3-3-3-3-3-3-3-3-0----------| 
B---------------------3---5---| 
G-----------------------------| 
D-----------------------------| 
A-----------------------------| 
E-----------------------------| 
 
E--5-5-5--2-0-----------------| 
B-------------3---5---3-------| 
G-----------------------------| 
D-----------------------------| 
A-----------------------------| 
E-----------------------------| 
 
Dê uma pause breve e toque isso: 
 
E--3--------------------------| 
B------3-0-0------------------| 
G-------------2--0--2/4-------| 
D-----------------------------| 
A-----------------------------| 
E-----------------------------| 
 
E-----------------------------| 
B--5--5--5---3----------------| 
G--------------2/4------------| 
D-----------------------------| 
A-----------------------------| 
E-----------------------------| 
 
E-----------------------------| 
B--5--5--5---3----------------| 
G--------------2---4-(hold)---| 
D-----------------------------| 
A-----------------------------| 
E-----------------------------| 
 
 
 
E------------------|------------------| 
B-------0-1-0------|-------1-0--------| 
G--------------0---|--0-0-------2-----| 
D--2-2-------------|------------------| 
A------------------|------------------| 
E------------------|------------------| 
 
E----------------------------| 
B----------------------------| 
G-2--0--2^-------------------| 
D-----------------0---2-2-2--| 
A----------------------------| 
E----------------------------| 
 
E volta a fazer o 1° riff. 
 
Aqui vai a letra da musica 
 
 
Every breath you take 
and every move you make  
Every bond you break every step you take I'll be watching you  
 
Every single day  
and every word you say  
Every game you play every night you stay I'll be watching you 
 
Oh can't you see you  
belong to me  
how my poor heart aches  
with every step you take  
 
 
Every move you make  
every vow you break  
Every smile you fake every claim you stake I'll be watching you  
 
Since you've gone I've been lost without a trace 
I dream at night I can only see your face  
I look around but it's you I can't replace  
I feel so cold and I long for your embrace  
I keep crying baby baby please 
 

	  

Full key step upFull key step up
Half key step upHalf key step up
Half key step downHalf key step down
Full key step downFull key step down
auto scroll beats size up size down change color hide chords drawings
tab show chords e-chords YouTube Clip e-chords hide all tabs e-chords go to top tab

share with facebook

Search Paypal