Sting

De Do Do Do De Da Da Da

Sting

tabs

save to print version add songbook text version e-mail correct tuner
chordsukulelecavacokeyboardtabbassdrumsharmonicaflute Guitar Pro
close

there isn't a video lesson for this song

chords

De Do Do Do De Da Da Da

	  		Intro and Refrain ("De do do do, de da da da..."):

             D
             V V
E -----------2-2---|
B -----------3-3---|
G -----------2-2---|
D -----------0-0---|
A -----------------|
E -----------------|
  (5/8 rest) |_| %

   A9        A       D/A       A                 E                 D
        						           V V
E -----------------|-----------------|-----------0-----|-----------2-2---||
B -0-0-0-0---2-----|-3-3-3-3---2-----|-----------0-----|-----------3-3---||
G -4-4-4-4---2-----|-2-2-2-2---2-----|-----------1-----|-----------2-2---||
D -2-2-2-2---2-----|-4-4-4-4---2-----|-----------2-----|-----------0-0---||
A -0-0-0-0---0-----|-0-0-0-0---0-----|-----------2-----|-----------------||
E -----------------|-----------------|-0-0-0-0---0-----|-0-0-0-0---------||
   |_|_| |  _| }     |_|_| |  _| }     |_|_| |   |.	 |_|_| |   |_| %


Verse ("Don't think me unkind..."):

E -----------------|-----------------|-----------------|-----------------||
B -----------------|-----------------|-----------------|-----------------||
G ---4-----4-----4-|---4-----4-----4-|---4-----4-----4-|---4-----4-----4-||
D -----4-----4-----|-----4-----4-----|-----4-----4-----|-----4-----4-----||
A (0)----0---------|-------------4---|-------4-----4---|-------4-----0---||
E -------------2T--|-------2T--------|-----------------|-----------------||
   |_|_|_|_|_|_|_|   % |_|_|_|_|_|_|   % |_|_|_|_|_|_|   % |_|_|_|_|_|_|


Chorus ("When the e-lo-quence escapes you...")

   D
   V       v   v   V       v   v     V       v   v   V       v   v
E -5-5-5-5-5-5-5-5-5-5-5-5-5-5-5-5-|-5-5-5-5-5-5-5-5-5-5-5-5-5-5-5-5-|
B -7-7-7-7-7-7-7-7-7-7-7-7-7-7-7-7-|-7-7-7-7-7-7-7-7-7-7-7-7-7-7-7-7-|
G -7-7-7-7-7-7-7-7-7-7-7-7-7-7-7-7-|-7-7-7-7-7-7-7-7-7-7-7-7-7-7-7-7-|
D -7-7-7-7-7-7-7-7-7-7-7-7-7-7-7-7-|-7-7-7-7-7-7-7-7-7-7-7-7-7-7-7-7-|
A -5-5-5-5-5-5-5-5-5-5-5-5-5-5-5-5-|-5-5-5-5-5-5-5-5-5-5-5-5-5-5-5-5-|
E ---------------------------------|---------------------------------|
   |=|=|=|=|=|=|=|=|=|=|=|=|=|=|=|   |=|=|=|=|=|=|=|=|=|=|=|=|=|=|=|

   E
   V       v   v   V       v   v     V       v   v   V       v   v
E -7-7-7-7-7-7-7-7-7-7-7-7-7-7-7-7-|-7-7-7-7-7-7-7-7-7-7-7-7-7-7-7-7-||
B -9-9-9-9-9-9-9-9-9-9-9-9-9-9-9-9-|-9-9-9-9-9-9-9-9-9-9-9-9-9-9-9-9-||
G -9-9-9-9-9-9-9-9-9-9-9-9-9-9-9-9-|-9-9-9-9-9-9-9-9-9-9-9-9-9-9-9-9-||
D -9-9-9-9-9-9-9-9-9-9-9-9-9-9-9-9-|-9-9-9-9-9-9-9-9-9-9-9-9-9-9-9-9-||
A -7-7-7-7-7-7-7-7-7-7-7-7-7-7-7-7-|-7-7-7-7-7-7-7-7-7-7-7-7-7-7-7-7-||
E ---------------------------------|---------------------------------||
   |=|=|=|=|=|=|=|=|=|=|=|=|=|=|=|   |=|=|=|=|=|=|=|=|=|=|=|=|=|=|=|



		  

See also:

tabs Simply Red - For yours babies tabs Phil Collins - Another Day In Paradise (Solo) tabs Kenny G - Going Home tabs Sting - Brand new day tabs Sting - Fields Of Gold tabs Sting - After The Rain Has Fallen
e-chords

Other versions:

tabs Sting - De Do Do Do De Da Da Da
auto scroll beats size up size down change color hide chords drawings
tab show chords e-chords YouTube Clip e-chords hide all tabs e-chords go to top tab

share