Stick Figure

Heartland

Stick Figure

tabs

by  IRONPOWER4EVER

save to print version add songbook text version e-mail correct tuner
chordsukulelecavacokeyboardtabbassdrumsharmonicaflute Guitar Pro
close

there isn't a video lesson for this song

chords

Heartland

	  		Intro 

    Eb                    Bbm 
e|---------3---------------------1-------------------------------------------| 
B|--4-----------4---4-----2-----------2--------------------------------------| 
G|----------------3---------------------3------------------------------------| 
D|------5---------------------3----------------------------------------------| 
A|--6---------------------1--------------------------------------------------| 
E|---------------------------------------------------------------------------| 

    Db                    Ab 
e|---------1--------------------------4--------------------------------------| 
B|--1-----------2---2-------------------4------------------------------------| 
G|----------------1-------5--------------------------------------------------| 
D|------3---------------------6----------------------------------------------| 
A|--4------------------------------------------------------------------------| 
E|------------------------4--------------------------------------------------| 

It's basically that for the whole acoustic version of the song, just play around with it :) 

Rock on! 
		  

Full key step upFull key step up
Half key step upHalf key step up
Half key step downHalf key step down
Full key step downFull key step down
hide glossary

See also:

tabs Deep Purple - Smoke On The Water tabs Ira! - Núcleo Base ( Acústico MTV) tabs Deep Purple - When a Blind man cries tabs Deep Purple - Time To Kill tabs Ira! - O Girassol (intro) tabs Deep Purple - Smoke On The Water (solo Ver.2)
e-chords

Other versions:

tabs The Sound - Heartland tabs Stick Figure - Heartland
auto scroll beats size up size down change color hide chords drawings
tab show chords e-chords YouTube Clip e-chords hide all tabs e-chords go to top tab

share