Stevie Wonder

home > Stevie Wonder

I Wish Tab

Stevie Wonder

Difficulty: IntermediateIntermediate

by bjorken96

tuner correct add songbook print version text version save to e-mail
chordsukulelecavacokeyboardtabbassdrumsharmonicsflute Guitar Pro
chords

I Wish

  		There are some hard parts but who said you have to get it on your first try. 

Main Riff: 

G|----------------------------------| 
D|*-------------------4-6-8-6------*| 
A|*--6---------3-4-5-6-------3-4-5-*| 
E|-----2-4-6-4----------------------| 

Pre-Chorus: 

G|-------------------0-1-2-3----------------------0-1-2-3| 
D|*-----0-----0-1-2-3----------------0-----0-1-2-3-------| 
A|*-1-3---1-3----------------1-2-1-3---1-3---------------| 
E|-------------------------------------------------------| 

Break: 

G|------------------------------------------------------------| 
D|*-------------------------4-----------------4-6-8---4h6p4---| 
A|*-6-4-6--6-------------4-6--6---4--6-4-6--6---------------6-| 
E|------------2-4-6---6---------6-----------------------------| 


Taken from BASSMASTA.NET - http://www.bassmasta.net 
	  

Search Paypal
auto scroll beats size up size down change color hide chords drawings
tab show chords e-chords YouTube Clip e-chords hide all tabs e-chords go to top tab