Stevie Wonder

home > Stevie Wonder

Alfie Tab

Stevie Wonder

Difficulty: nolevelnolevel

by gustsilva

tuner correct add songbook print version text version save to e-mail
chordsukulelecavacokeyboardtabbassdrumsharmonicsflute Guitar Pro
chords

Alfie

  		 
e|13-11-10-11-13~~-----18---13-15h13-----17-15-16h15---------------------------21-22p21| 
B|-------------------15------------------------------18------------------15-18---------| 
G|-----------------------------------14-----------------14--15--17----16---------------| 
D|-------------------------------------------------------------------------------------| 
A|-----------------------------------12------------------------------------------------| 
E|-------------------------------------------------------------------------------------| 

e|18-18-20-18-17-18-20------18------------------------20~--17-----18-15-16h15----------| 
B|---------------------1818----20-----15-16-18-20-20~-------------------------13-15----| 
G|--------------------------------17---------------------------------------------------| 
D|-------------------------------------------------------------------------------------| 
A|-------------------------------------------------------------------------------------| 
E|-------------------------------------------------------------------------------------| 

e|------15---13-------13-15~----13-11-10-11-13-----------------------18---18-20p18-----| 
B|16-18---------15-15--------------------------9/10------------1516h--------------18-20| 
G|--------------------------------------------------10-12---10-------------------------| 
D|-------------------------------------------------------12----------------------------| 
A|-------------------------------------------------------------------------------------| 
E|-------------------------------------------------------------------------------------| 

e|--------17-15-16p15--------------------------(24)22=22-20=20=18=20h18-20----17-18-18-| 
B|-18-----------------18-17p18---------------------------------------------20----------| 
G|----14-----------------------19-20p19-17---------------------------------------------| 
D|-------------------------------------------------------------------------------------| 
A|-------------------------------------------------------------------------------------| 
E|-------------------------------------------------------------------------------------| 

e|17-15----15-17-18-20-------18-15-16p15-----------------------20--17-18-20------17--12| 
B|------18-------------18-18-------------------15--16--18--20~-------------------------| 
G|---------------------------------------17-19-----------------------------------------| 
D|-------------------------------------------------------------------------------------| 
A|-------------------------------------------------------------------------------------| 
E|-------------------------------------------------------------------------------------| 

e|--15-16p15-13--------------13-17--20-22----17-18p17-15-17--------/20--17--12--14-15p| 
B|---------------14~----13-15-----------------------------------/13--------------------| 
G|-------------------------------------------------------------------------------------| 
D|-------------------------------------------------------------------------------------| 
A|-------------------------------------------------------------------------------------| 
E|-------------------------------------------------------------------------------------| 

e|13--------------13-17-18-17-18-17-17-18p17-17-18p17--15--17-18h17-15-----13/15--13-11| 
B|---14---13--15-------------------------------------------------------16--------------| 
G|-------------------------------------------------------------------------------------| 
D|-------------------------------------------------------------------------------------| 
A|-------------------------------------------------------------------------------------| 
E|-------------------------------------------------------------------------------------| 

e|p10--10-13-11p10---10-20-18p17---17-13-11p10---10--13------18--15-17-18--------------| 
B|--11------------11------------18------------11---------------------------------------| 
G|--------------------------------------------------------15---------------17-18p17--15| 
D|-------------------------------------------------------------------------------------| 
A|-------------------------------------------------------------------------------------| 
E|-------------------------------------------------------------------------------------| 

e|--20--18--13----17-20h-18~---15--17-18--------20-16-17h-----15-17-18---18-20p18-20-22| 
B|--------------------------------------12-13h------------18---------------------------| 
G|--17--15--10---------------------------------15--------------------------------------| 
D|-------------------------------------------------------------------------------------| 
A|-------------------------------------------------------------------------------------| 
E|-------------------------------------------------------------------------------------| 

e|(23)22~----(23)--20--18~----15-16p15-16p15--------------------------20-18-17--17-1820| 
B|---------------------------------------------15~-----16-/17-/18-/20---------20-------| 
G|------------------------------------------17-----------------------------------------| 
D|-------------------------------------------------------------------------------------| 
A|-------------------------------------------------------------------------------------| 
E|-------------------------------------------------------------------------------------| 

e|18-17---17-18-20-18-17---17-1820-18-17--17-18p17-17-18~-----15-----------------------| 
B|-----20---------------20------------------------------------------15--16--18--20~----| 
G|---------------------------------------------------------------17--------------------| 
D|-------------------------------------------------------------------------------------| 
A|-------------------------------------------------------------------------------------| 
E|-------------------------------------------------------------------------------------| 

e|-------------x----10--6-8h6---8-10--1815-16p15-------------------------------15--10-| 
B|8/-09-\8--6--6-----------------------------------18-18----15-18-18~----15-18---------| 
G|9/-10-\9-----7-----------------------------------------15---------------------12--07-| 
D|-------------8-----------------------------------------------------------------------| 
A|-------------9-----------------------------------------------------------------------| 
E|-------------7-----------------------------------------------------------------------| 


e|-12--13--15--13---20-/21-\20~~~----| 
B|-----------------------------------| 
G|-09--10--12--10---17-/18-\17~~~----| 
D|-----------------------------------| 
A|-----------------------------------| 
E|-----------------------------------| 
  

************************************ 

| x    Dead note 
| (n)  Ghost note 
| h    Hammer-on 
| p    Pull-off 
| /    Slide up 
| \    Slide down 
| ~    Vibrato  

************************************ 
	  

Search Paypal
auto scroll beats size up size down change color hide chords drawings
tab show chords e-chords YouTube Clip e-chords hide all tabs e-chords go to top tab