Stephen Fretwell

Rose

Stephen Fretwell

tabs

by  PAULLET3

save to print version add songbook text version e-mail correct tuner
chordsukulelecavacokeyboardtabbassdrumsharmonicaflute Guitar Pro
close

there isn't a video lesson for this song

chords

Rose

	  		e|-------------------------------------------------| 
b|---------3----------3----------3----------3------| 
g|-------4--4-------4--4-------4--4-------4--4-----| 
d|------4----4-----4----4-----4----4-----4----4----| 
a|---2----------0----------------------------------| 
e|-------------------------4----------4------------| 


e|-------------------------------------------------| 
b|---------2----------2----------2----------2------| 
g|-------2--2-------2--2-------2--2-------2--2-----| 
d|------2----2-----2----2-----2----2-----2----2----| 
a|---0---------------------------------------------| 
e|--------------4----------2----------0------------| 
		  

See also:

tabs Deep Purple - Sometimes a Feel Like Screaming tabs Deep Purple - Mistreated tabs Deep Purple - Smoke on the Water (ver. 2) tabs Ira! - Vitrine Viva tabs Doa - Sexyest Girl tabs Deep Purple - Ted The Mechanic
e-chords

Other versions:

tabs James Horner - Rose tabs Stephen Fretwell - Rose tabs Titanic - Rose And Jack tabs KillSwitch Engage - Rose Of Sharyn tabs Idlewild - Roseability tabs Better Than Ezra - Rosealia
auto scroll beats size up size down change color hide chords drawings
tab show chords e-chords YouTube Clip e-chords hide all tabs e-chords go to top tab

share with facebook