Steely Dan

Midnight Cruiser (acoustic)

Steely Dan

tabs

by  BRUNBLAZKOWSKI

save to print version add songbook text version e-mail correct tuner
chordsukulelecavacokeyboardtabbassdrumsharmonicaflute Guitar Pro
close

there isn't a video lesson for this song

chords

Midnight Cruiser (acoustic)

	  		
Tuning:  standard 
     Fe -  lonius  my old friend  step on in and let me shake your hand 

e|---0--------1-----1-------0-------X------X------------0----------3-------------------| 
B|---1--------1-----1-------1-------3------3------------1----------3-------------------| 
G|---0--------2-----0-------0-------3------3------------2----------0-------------------| 
D|---2--------0-----0-------0-------3------3------------2----------0-------------------| 
A|--0--------0---0-1-------1-------1------0------------0-------------------------------| 
E|-0------------------------------0--------x----------0-----------3--------------------| 

    so glad you're here again    for one more time let your  madness run with 

e|---0----0-----0--------0--------1-----------0--------------3------------------------| 
B|---1----1-----1--------3--------3-----------1--------------3------------------------| 
G|---0----2-----0--------0--------2-----------2--------------0------------------------| 
D|---2----0-----0--------0--------3-----------2--------------0------------------------| 
A|--0----0-----3--------1--------1-----------0--------------2-------------------------| 
---0----0-----0--------0--------1-----------0--------------3----------------------|0--| 

     mine    streets still unseen we'll find somehow 

e|---3-----------------------0-----------3------3--------------------------------| 
B|---3-----------------------1-----------3------3--------------------------------| 
G|---3-----------------------0-----------5------3--------------------------------| 
D|---5-----------------------2-----------5------5--------------------------------| 
A|---5-----------------------3-----------3------5--------------------------------| 
E|---3-----------------------3-----------3------3--------------------------------| 

      no time is better than now      tell   me 

e|-------1----------1--------3----------1-----3-----------------------------------| 
B|-------1----------1--------3----------1-----3-----------------------------------| 
G|-------3----------2--------0----------2-----0-----------------------------------| 
D|-------3----------3--------0----------3-----0-----------------------------------| 
A|-------1----------3--------2----------3-----2-----------------------------------| 
E|-------3----------1--------3----------1-----3-----------------------------------| 


     where    are you driving midnight cruiser 
e|-----0--0-----------0---0------3------3----3--------------------------------------| 
B|-----1--1-----------1---1------3------3----3--------------------------------------| 
G|-----0--0-----------0---0------0------0----0--------------------------------------| 
D|-----0--2-----------3---2------0------2----0--------------------------------------| 
A|-----3--3-----------0---3------2------0----2--------------------------------------| 
E|-----3--3-----------3---3-----3-------3----3--------------------------------------| 

     where is your bounty of fortune and fame 

e|------------------------------1--------1-------------------------------------------| 
B|--------3---------4-- 3-------1--------1-------------------------------------------| 
G|--------3---------3---3-------2--------0-------------------------------------------| 
D|--------3---------3---3-------3--------0-------------------------------------------| 
A|-----1------------1---1-------3--------3-------------------------------------------| 
E|------------------X---X------1---------3-------------------------------------------| 

      I am another gentleman loser 

e|-----0--0-----------0---0------3------3----3--------------------------------------| 
B|-----1--1-----------1---1------3------3----3--------------------------------------| 
G|-----0--0-----------0---0------0------0----0--------------------------------------| 
D|-----0--2-----------3---2------0------2----0--------------------------------------| 
A|-----3--3-----------0---3------2------0----2--------------------------------------| 
E|-----3--3-----------3---3------3------3----3--------------------------------------| 


     take me to Harlem or somewhere the same 

e|------------------------------1--------0-------3------1-----3------0-------------------| 
B|--------3---------4-- 3-------1--------1-------3------1-----3------1-------------------| 
G|--------3---------3---3-------2--------2-------0------2-----0------2-------------------| 
D|--------3---------3---3-------3--------2-------0------3-----0------2-------------------| 
A|-----1------------1---1-------3--------0-------2------3-----2------0-------------------| 
E|------------------X---X-------1--------0-------3------1-----3------0-------------------| 

           / 
e|---0--0------0--0-----0--0---0-----0--0-----7--5--| 
B|---1--1------3--3-----5--5---3-----8--7-----8--7--| 
G|---0--0------0--0-----5--5---0-----7--7-----7--0--| 
D|---2--2------4--4-----5--5---5-----7--7-----0--0--| 
A|----------------------------------0---------------| 
E|--------------------------------------------------| 


e|----0--------------------------------------------------------------------------| 
B|----1h-------------------------------------------------------------------------| 
G|----0--------------------------------------------------------------------------| 
D|----2--------------------------------------------------------------------------| 
A|---0---------------------------------------------------------------------------| 
E|-------------------------------------------------------------------------------| 
		  

See also:

tabs Black Eyed Peas - Pump it (solo) tabs Maroon 5 - She will be loved (intro) tabs Michael Jackson - Billie Jean ( ver. 2 ) tabs Gavin Degraw - Follow Through tabs Yellowcard - Only One tabs Black Eyed Peas - Pump it intro
e-chords

Other versions:

tabs Steely Dan - Midnight Cruiser (acoustic)
auto scroll beats size up size down change color hide chords drawings
tab show chords e-chords YouTube Clip e-chords hide all tabs e-chords go to top tab

share