Status Quo

home > Status Quo

Get Back Tab

Status Quo

Difficulty: ExpertExpert

by rodr%5Faeh

tuner correct add songbook print version text version save to e-mail
chordsukulelecavacokeyboardtabbassdrumsharmonicsflute Guitar Pro
chords

Get Back

  		Rick intro:   A   A   D   A   A G D   A  

  Francis: 
E -9-9-9--9-9-9--8-8-8-  
B -8-8-8--8-8-8--7-7-7-  
G -9-9-9--9-9-9--9-9-9-  
D ---------------------  
A ---------------------  
E --------------------- and so on... 

   
E -------------------------  
B -------------------------  
G -4b-4p2-4p2-4p2----------  
D ----------------4p2----2-  
A --------------------3b-0-  
E -------------------------  

A 
Jojo was a man who thought he was a loner 
D                        A 
but he knew it couldn't last 

E -------------------------  
B -------------------------  
G -4b-4p2-4p2-4p2----------  
D ----------------4p2----2-  
A --------------------3b-0-  
E -------------------------  

A 
Jojo left his home in Tuscan, Arizona 
D                     A    G 
for some Californian grass 

D   A 
Get back!  Get back! 
    D7                       A      G  
Get back to where you once belonged 
D   A 
Get back!  Get back! 
    D                        A 
Get back to where you once belonged 


E ------------------------12-------------  
B ----10-10-10----10-12hb----rb-10----10-  
G -11----------11------------------11----  
D ---------------------------------------  
A ---------------------------------------  
E ---------------------------------------  
  etc.  Improvise in F# Natural Minor/E Mixolydian 

	  

Full key step upFull key step up
Half key step upHalf key step up
Half key step downHalf key step down
Full key step downFull key step down
Search Paypal
auto scroll beats size up size down change color hide chords drawings
tab show chords e-chords YouTube Clip e-chords hide all tabs e-chords go to top tab