State Champs

home > State Champs

Remedy Tab

State Champs

Difficulty: nolevelnolevel

by paulantunes

tuner correct add songbook print version text version save to e-mail
chordsukulelecavacokeyboardtabbassdrumsharmonicsflute Guitar Pro
chords

Remedy

  		 song 



Tuning: Standard EADGBe - STRUMMING NOT NOTED,  
(Number of times to play each chord not noted, listen to the song to figure it out) 

Intro Pt. 1 (0:00) 
e|---------------------------------------------------------------------------| 
B|---------------------------------------------------------------------------| 
G|---------------------------------------------------------------------------| 
D|-0-4-x-x-6-4--x-x-6-4--7~--------------------------------------------------| 
A|-2-2-7-9-4-2--7-9-4-2--7~--------------------------------------------------| 
E|-0-0-5-7-0-0--5-7-0-0--5~--------------------------------------------------| 

Intro Pt 2 
e|---------------------------------------------------------------------------| 
B|---------------------------------------------------------------------------| 
G|---------------------------------------------------------------------------| 
D|-0-4-x-x-6-4-x-x-----------------------------------------------------------| 
A|-2-2-7-9-4-2-7-9-----------------------------------------------------------|    
E|-0-0-5-7-0-0-5-7-----------------------------------------------------------| x4 

verse 1 (0:27) 
e|-------------------------------------------------------------------------------------------------| 
B|-------------------------------------------------------------------------------------------------| 
G|-------------------------------------------------------------------------------------------------| 
D|-0~--0~--0-0-0-0-0-0-0-0-0-0-0-0-x-x-x-x-x-x-x-x-x-x-x-x-x-x-x-x-x-x-x-x-x-x-x-x-x-x-x-x-x-x-x-x-| 
A|-2~--2~--2-2-2-2-2-2-2-2-4-4-4-4-4-4-4-4-4-4-4-4-6-6-6-6-6-6-6-6-6-6-6-6-6-6-6-6-6-6-6-6-6-6-6-6-| 
E|-0~--0~--0-0-0-0-0-0-0-0-2-2-2-2-2-2-2-2-2-2-2-2-4-4-4-4-4-4-4-4-4-4-4-4-4-4-4-4-4-4-4-4-4-4-4-4-| x2 
            PALM MUTE  

Pre Chorus (0:47) 
e|---------------------------------------------------------------------------| 
B|---------------------------------------------------------------------------| 
G|---------------------------------------------------------------------------| 
D|-x--x--x----x-x-x----------------------------------------------------------| 
A|-11-11-11---9-9-9----------------------------------------------------------| (11's Not 1's) 
E|-9--9--9----7-7-7----------------------------------------------------------| 

Chorus (0:50) 
e|---------------------------------------------------------------------------| 
B|---------------------------------------------------------------------------| 
G|---------------------------------------------------------------------------| 
D|-0-4-x-x-6-4--x-x-6-4-x-x----4-x-x-6-4-x--x-6-4-x--------------------------| 
A|-2-2-7-9-4-2--7-9-4-2-7-9----2-2-7-9-4-2--7-9-4-2--7~----------------------| 
E|-0-0-5-7-0-0--5-7-0-0-5-7----0-0-5-7-0-0--5-7-0-0--5~----------------------| 

POST Chorus (1:10) - Really quick and leads into verse 2 
e|---------------------------------------------------------------------------| 
B|---------------------------------------------------------------------------| 
G|---------------------------------------------------------------------------| 
D|---------------------------------------------------------------------------| 
A|-7-7-7-7-2-2-2-2-----------------------------------------------------------| 
E|-5-5-5-5-0-0-0-0-----------------------------------------------------------| 

verse 2 (1:11) 
e|-----------------------------------------------------------------------------------------------------| 
B|-----------------------------------------------------------------------------------------------------| 
G|-----------------------------------------------------------------------------------------------------| 
D|-0-0-0-0-0-0-0-0-x-x-x-x-x-x-x-x-x-x-x-x-x-x-x-x-x-x-x-x-x-x-x-x-x-x-x-x-x-x-x-x-x-x-x-x-------------| 
A|-2-2-2-2-2-2-2-2-4-4-4-4-4-4-4-4-4-4-4-4-6-6-6-6-6-6-6-6-6-6-6-6-6-6-6-6-6-6-6-6-6-6-6-6-------------| 
E|-0-0-0-0-0-0-0-0-2-2-2-2-2-2-2-2-2-2-2-2-4-4-4-4-4-4-4-4-4-4-4-4-4-4-4-4-4-4-4-4-4-4-4-4-------------| x4 
             (PALM MUTE) 

PRE Chorus X2 (1:30) 


Chorus (1:35) 


BRIDGE PT1 - (1:54) 
e|---------------------------------------------------------------------------| 
B|---------------------------------------------------------------------------| 
G|---------------------------------------------------------------------------| 
D|-7~---0~---7~---0~---------------------------------------------------------| 
A|-7~---2~---7~---2~---------------------------------------------------------| 
E|-5~---0~---5~---0~---------------------------------------------------------| 


BRIDGE PT2 - (2:12) 
e|---------------------------------------------------------------------------| 
B|---------------------------------------------------------------------------| 
G|---------------------------------------------------------------------------| 
D|-x-x-x-x-x-x-x~x---x-x-x-x-x-x-x~x---0-0-0-0-0-0-0~x---0-0-0-0-0-0-0~x-----| 
A|-7-7-7-7-7-7-7~x---7-7-7-7-7-7-7~x---2-2-2-2-2-2-2~x---2-2-2-2-2-2-2~x-----| 
E|-5-5-5-5-5-5-5~x---5-5-5-5-5-5-5~x---0-0-0-0-0-0-0~x---0-0-0-0-0-0-0~x-----| x2 
               (PALM MUTE - FAST) 


BRIDGE PT3 (2:32) - Not sure on this bit but this is how I play it 
e|---------------------------------------------------------------------------| 
B|---------------------------------------------------------------------------| 
G|-16---------9---11---------------------------------------------------------| 
D|-x----16----x---x----------------------------------------------------------| 
A|-14---14----7---9----------------------------------------------------------| 
E|---------------------------------------------------------------------------| x2  


Chorus - (2:51) 
e|---------------------------------------------------------------------------| 
B|---------------------------------------------------------------------------| 
G|---------------------------------------------------------------------------| 
D|-0-4-x-x-6-4~--x-x-6-4-x-x~--0-4-x-x-6-4~--x-x-6-4~------------------------| 
A|-2-2-7-9-4-2~--7-9-4-2-7-9~--2-2-7-9-4-2~--7-9-4-2~------------------------| 
E|-0-0-5-7-0-0~--5-7-0-0-5-7~--0-0-5-7-0-0~--5-7-0-0~------------------------| 

ENDING - (3:10) This is my way 
e|---------------------------------------------------------------------------| 
B|---------------------------------------------------------------------------| 
G|--------------9~-----------------------------------------------------------| 
D|--------------x~-----------------------------------------------------------| 
A|-7--11--9--7--7~-----------------------------------------------------------| 
E|-5--9---7--5---------------------------------------------------------------| 



************************************ 

If not sure, listen to the song and you'll pick up the strumming pattern and stuff 

This was done by watching some others play it and the rest by ear. It is rough however enjoy!!! Because this 
is a great band and great song and it may help a few people. :D 

************************************ 
	  

Search Paypal
auto scroll beats size up size down change color hide chords drawings
tab show chords e-chords YouTube Clip e-chords hide all tabs e-chords go to top tab