State Champs

Prepare To Be Noticed

State Champs

tabs

by  ALEFFEDERICO

save to print version add songbook text version e-mail correct tuner
chordsukulelecavacokeyboardtabbassdrumsharmonicaflute Guitar Pro
close

there isn't a video lesson for this song

chords

Prepare To Be Noticed

	  		
Bass Solo Guitar 1: 
D#|---------------------------------------------------------------| 
A#|---------------------------------------------------------------| 
F#|--11-11-11---11-11-11---11-11-11----11-11-11---14-14-14-14-14--| 
C#|--x--x--x----x--x--x----x--x--x-----x--x--x-----x--x--x--x--x--| 
G#|--9--9--9----9--9--9----9--9--9-----9--9--9----12-12-12-12-12--| 
C#|---------------------------------------------------------------| 

Bass Solo Guitar 1: 
D#|------------------------------------------------------------| 
A#|------------------------------------------------------------| 
F#|--7--7--7----7--7--7----7--7--7-----7--7--7-----7--7--7--7--| 
C#|--x--x--x----x--x--x----x--x--x-----x--x--x-----x--x--x--x--| 
G#|--5--5--5----5--5--5----5--5--5-----5--5--5-----5--5--5--5--| 
C#|------------------------------------------------------------| 

Intro Guitar 1: 
D#|---------------------------------|---------------------------------| 
A#|---------------------------------|---------------------------------| 
F#|--14--14-x-x-14--14--16--14--16--|--x--14--14--x-x--7--x-x-9/11\9--| 
C#|---x---x-x-x--x---x---x---x---x--|--x---x---x--x-x--x--x-x--x-x-x--| 
G#|--12--12-x-x-12--12--14--12--12--|--x--12--12--x-x--5--x-x--7/9\7--| 
C#|---------------------------------|---------------------------------| 

D#|---------------------------------|---------------------------------| 
A#|---------------------------------|---------------------------------| 
F#|--14--14-x-x-14--14--16--14--16--|--x--14--14--x-x--7--7--7--7--7--| 
C#|---x---x-x-x--x---x---x---x---x--|--x---x---x--x-x--x--x--x--x--x--| 
G#|--12--12-x-x-12--12--14--12--12--|--x--12--12--x-x--5--5--5--5--5--| 
C#|---------------------------------|---------------------------------| 

D#|---------------------------------|--------------------------------| 
A#|---------------------------------|--------------------------------| 
F#|--14--14-x-x-14--14--16--14--16--|--x--14--14--x-x--7--x-x--7--7--| 
C#|---x---x-x-x--x---x---x---x---x--|--x---x---x--x-x--x--x-x--x--x--| 
G#|--12--12-x-x-12--12--14--12--12--|--x--12--12--x-x--5--x-x--5--5--| 
C#|-------------------------|--------------|--------------------------| 

D#|-------------------------|--------------| 
A#|-------------------------|------15------| 
F#|--11-11-11-9--9--14--14--|--14------14--| 
C#|--x--x--x--x--x---x---x--|--------------| 
G#|--9--9--9--7--7--12--12--|--------------| 
D#|-------------------------|--------------| 

Intro Guitar 2: 
D#|-------------------------|------------------------------| 
A#|-------------------------|------------------------------| 
F#|--7--7--x-----4/7--------|------------------------------| 
C#|--7--7--x--7--4/7--5--5--|--x--5--5--x-x--5--x-x--5--5--| 
G#|--5--5--x--7--2/5--5--5--|--x--5--5--x-x--5--x-x--5--5--| 
C#|-----------7-------5--5--|--x--5--5--x-x--5--x-x--5--5--| 

D#|-------------------------|----------------------------| 
A#|-------------------------|----------------------------| 
F#|--7--7--x-----4/7--------|----------------------------| 
C#|--7--7--x--7--4/7--5--5--|--x--5--5--x-x--5--5--5--5--| 
G#|--5--5--x--7--2/5--5--5--|--x--5--5--x-x--5--5--5--5--| 
C#|-----------7-------5--5--|--x--5--5--x-x--5--5--5--5--| 

D#|-------------------------|---------------------------| 
A#|-------------------------|---------------------------| 
F#|--7--7--x-----4/7--------|---------------------------| 
C#|--7--7--x--7--4/7--5--5--|--x--5--5--x-x--5--x-x--5--| 
G#|--7--7--x--7--2/5--5--5--|--x--5--5--x-x--5--x-x--5--| 
C#|-----------7-------5--5--|--x--5--5--x-x--5--x-x--5--| 

D#|-----------------------| 
A#|-----------------------| 
F#|-----------------------| 
C#|--2--2--2--4--4--4--5--| 
G#|--2--2--2--4--4--4--5--| 
C#|--2--2--2--4--4--4--5--| 


Verse Guitar 1: 
"How'd You Know That I Would Act This Way?" 
D#|---------| 
A#|---------| 
F#|--7-7-7--| 
C#|--x-x-x--| 
G#|--5-5-5--| 
C#|---------| 

D#|-----------------------------------| 
A#|------------------15--15-----------| 
F#|----------14--14-----------14--14--| 
C#|--12--12---------------------------| 
G#|-----------------------------------| 
C#|-----------------------------------|(x4) 

Verse Guitar 2: 
"How'd You Know That I Would Act This Way?" 
D#|----------------|-------------------| 
A#|----------------|-------------------| 
F#|--7-7-7---------|---7/9\7---9---11--| 
C#|--x-x-x---------|---x-x-x---x---x---| 
G#|--5-5-5---------|---5/7\5---7---9---| 
C#|----------------|-------------------| 

D#|----------------|-------------------| 
A#|----------------|-------------------| 
F#|--7-------------|---7/9\7---9---11--| 
C#|--x-------------|---x-x-x---x---x---| 
G#|--5-------------|---5/7\5---7---9---| 
DC|----------------|-------------------| 

Chorus Guitar 1: 
"I Could Never Resist..." 
D#|---------------------------------|---------------------------------| 
A#|---------------------------------|---------------------------------| 
F#|--14--14-x-x-14--14--16--14--16--|--x--14--14--x-x--7--x-x-9/11\9--| 
C#|---x---x-x-x--x---x---x---x---x--|--x---x---x--x-x--x--x-x--x-x-x--| 
G#|--12--12-x-x-12--12--14--12--12--|--x--12--12--x-x--5--x-x--7/9\7--| 
C#|---------------------------------|---------------------------------| 

D#|---------------------------------|---------------------------------| 
A#|---------------------------------|---------------------------------| 
F#|--14--14-x-x-14--14--16--14--16--|--x--14--14--x-x--7--7--7--7--7--| 
C#|---x---x-x-x--x---x---x---x---x--|--x---x---x--x-x--x--x--x--x--x--| 
G#|--12--12-x-x-12--12--14--12--12--|--x--12--12--x-x--5--5--5--5--5--| 
C#|---------------------------------|---------------------------------| 

D#|---------------------------------|--------------------------------| 
A#|---------------------------------|--------------------------------| 
F#|--14--14-x-x-14--14--16--14--16--|--x--14--14--x-x--7--x-x--7--7--| 
C#|---x---x-x-x--x---x---x---x---x--|--x---x---x--x-x--x--x-x--x--x--| 
G#|--12--12-x-x-12--12--14--12--12--|--x--12--12--x-x--5--x-x--5--5--| 
C#|---------------------------------|--------------------------------| 

D#|-------------------------|--------------| 
A#|-------------------------|------15------| 
F#|--11-11-11-9--9--14--14--|--14------14--| 
C#|--x--x--x--x--x---x---x--|--------------| 
G#|--9--9--9--7--7--12--12--|--------------| 
C#|-------------------------|--------------| 

Chorus Guitar 2: 
"I Could Never Resist..." 
D#|-------------------------|------------------------------| 
A#|-------------------------|------------------------------| 
F#|--7--7--x-----4/7--------|------------------------------| 
C#|--7--7--x--7--4/7--5--5--|--x--5--5--x-x--5--x-x--5--5--| 
G#|--5--5--x--7--2/5--5--5--|--x--5--5--x-x--5--x-x--5--5--| 
C#|-----------7-------5--5--|--x--5--5--x-x--5--x-x--5--5--| 

D#|-------------------------|----------------------------| 
A#|-------------------------|----------------------------| 
F#|--7--7--x-----4/7--------|----------------------------| 
C#|--7--7--x--7--4/7--5--5--|--x--5--5--x-x--5--5--5--5--| 
G#|--5--5--x--7--2/5--5--5--|--x--5--5--x-x--5--5--5--5--| 
C#|-----------7-------5--5--|--x--5--5--x-x--5--5--5--5--| 

D#|-------------------------|---------------------------| 
A#|-------------------------|---------------------------| 
F#|--7--7--x-----4/7--------|---------------------------| 
C#|--7--7--x--7--4/7--5--5--|--x--5--5--x-x--5--x-x--5--| 
G#|--7--7--x--7--2/5--5--5--|--x--5--5--x-x--5--x-x--5--| 
C#|-----------7-------5--5--|--x--5--5--x-x--5--x-x--5--| 

D#|-----------------------| 
A#|-----------------------| 
F#|-----------------------| 
C#|--2--2--2--4--4--4--5--| 
G#|--2--2--2--4--4--4--5--| 
C#|--2--2--2--4--4--4--5--| 


Verse Guitar 1: 
"How'd You Know That I Could Break This Way?" 
D#|---------| 
A#|---------| 
F#|--7-7-7--| 
C#|--x-x-x--| 
G#|--5-5-5--| 
C#|---------| 

D#|-----------------------------------| 
A#|------------------15--15-----------| 
F#|----------14--14-----------14--14--| 
C#|--12--12---------------------------| 
G#|-----------------------------------| 
C#|-----------------------------------|(x4) 

Verse Guitar 2: 
"How'd You Know That I Could Break This Way?" 
D#|----------------|-------------------| 
A#|----------------|-------------------| 
F#|--7-7-7---------|---7/9\7---9---11--| 
C#|--x-x-x---------|---x-x-x---x---x---| 
G#|--5-5-5---------|---5/7\5---7---9---| 
C#|----------------|-------------------| 

D#|----------------|-------------------| 
A#|----------------|-------------------| 
F#|--7-------------|---7/9\7---9---11--| 
C#|--x-------------|---x-x-x---x---x---| 
G#|--5-------------|---5/7\5---7---9---| 
C#|----------------|-------------------| 

Chorus Guitar 1: 
"I Could Never Resist..." 
D#|---------------------------------|---------------------------------| 
A#|---------------------------------|---------------------------------| 
F#|--14--14-x-x-14--14--16--14--16--|--x--14--14--x-x--7--x-x-9/11\9--| 
C#|---x---x-x-x--x---x---x---x---x--|--x---x---x--x-x--x--x-x--x-x-x--| 
G#|--12--12-x-x-12--12--14--12--12--|--x--12--12--x-x--5--x-x--7/9\7--| 
C#|---------------------------------|---------------------------------| 

D#|---------------------------------|---------------------------------| 
A#|---------------------------------|---------------------------------| 
F#|--14--14-x-x-14--14--16--14--16--|--x--14--14--x-x--7--7--7--7--7--| 
C#|---x---x-x-x--x---x---x---x---x--|--x---x---x--x-x--x--x--x--x--x--| 
G#|--12--12-x-x-12--12--14--12--12--|--x--12--12--x-x--5--5--5--5--5--| 
C#|---------------------------------|---------------------------------| 

D#|---------------------------------|--------------------------------| 
A#|---------------------------------|--------------------------------| 
F#|--14--14-x-x-14--14--16--14--16--|--x--14--14--x-x--7--x-x--7--7--| 
C#|---x---x-x-x--x---x---x---x---x--|--x---x---x--x-x--x--x-x--x--x--| 
G#|--12--12-x-x-12--12--14--12--12--|--x--12--12--x-x--5--x-x--5--5--| 
C#|---------------------------------|--------------------------------| 

D#|-------------------------|--------------| 
A#|-------------------------|------15------| 
F#|--11-11-11-9--9--14--14--|--14------14--| 
C#|--x--x--x--x--x---x---x--|--------------| 
G#|--9--9--9--7--7--12--12--|--------------| 
C#|-------------------------|--------------| 

Chorus Guitar 2: 
"I Could Never Resist..." 
D#|-------------------------|------------------------------| 
A#|-------------------------|------------------------------| 
F#|--7--7--x-----4/7--------|------------------------------| 
C#|--7--7--x--7--4/7--5--5--|--x--5--5--x-x--5--x-x--5--5--| 
G#|--5--5--x--7--2/5--5--5--|--x--5--5--x-x--5--x-x--5--5--| 
C#|-----------7-------5--5--|--x--5--5--x-x--5--x-x--5--5--| 

D#|-------------------------|----------------------------| 
A#|-------------------------|----------------------------| 
F#|--7--7--x-----4/7--------|----------------------------| 
C#|--7--7--x--7--4/7--5--5--|--x--5--5--x-x--5--5--5--5--| 
G#|--5--5--x--7--2/5--5--5--|--x--5--5--x-x--5--5--5--5--| 
C#|-----------7-------5--5--|--x--5--5--x-x--5--5--5--5--| 

D#|-------------------------|---------------------------| 
A#|-------------------------|---------------------------| 
F#|--7--7--x-----4/7--------|---------------------------| 
C#|--7--7--x--7--4/7--5--5--|--x--5--5--x-x--5--x-x--5--| 
G#|--7--7--x--7--2/5--5--5--|--x--5--5--x-x--5--x-x--5--| 
C#|-----------7-------5--5--|--x--5--5--x-x--5--x-x--5--| 

D#|-----------------------| 
A#|-----------------------| 
F#|-----------------------| 
C#|--2--2--2--4--4--4--5--| 
G#|--2--2--2--4--4--4--5--| 
C#|--2--2--2--4--4--4--5--| 

PreBridge Guitar 2: 
D#|--------|-----------|--------|--------------|--------|--------------|-------------|--------| 
A#|--------|-----------|--------|--------------|--3-----|--------------|-------------|--------| 
F#|--------|-----------|--------|--------------|--2-----|--------------|-------------|-----7--| 
C#|--0-----|-----------|--0-----|--------------|--0-----|--------------|--2---4---5--|--5--7--| 
G#|--0-----|-----------|--0-----|--------------|--0-----|--------------|--2---4---5--|--5--5--| 
C#|--0-----|--4--5--5--|--0-----|--4--5--4--2--|--0-----|--4--5--4--7--|--2---4---5--|--5-----| 

Bridge Guitar 1: 
"That's Saying Something..." 
D#|----------------------------------------7-------------| 
A#|----------10-----------7--7--10--7--10-----10--7--10--| 
F#|--7/9--9------9--9--9---------------------------------| 
C#|------------------------------------------------------| 
G#|------------------------------------------------------| 
C#|------------------------------------------------------| 

D#|----------------------------------------14~--| 
A#|----------10-----------7--7--10--7--10-------| 
F#|--7/9--9------9--9--9------------------------| 
C#|---------------------------------------------| 
G#|---------------------------------------------| 
C#|---------------------------------------------| 

D#|----------------------------------------7-------------| 
A#|----------10-----------7--7--10--7--10-----10--7--10--| 
F#|--7/9--9------9--9--9---------------------------------| 
C#|------------------------------------------------------| 
G#|------------------------------------------------------| 
C#|------------------------------------------------------|(x2) 

Bridge Guitar 2: 
"That's Saying Something..." 
D#|----------------------|-----------------------| 
A#|----------------------|-----------------------| 
F#|----------------------|-----------------------| 
C#|--0-----4--5--4--2----|--5--5--4--7--5--4--5--| 
G#|--0-----4--5--4--2----|--5--5--4--7--5--4--5--| 
C#|--0-----4--5--4--2----|--5--5--4--7--5--4--5--| 

D#|----------------------|-----------| 
A#|----------------------|-----------| 
F#|----------------------|-----------| 
C#|--0-----4--5--4--2----|--5--5--4--| 
G#|--0-----4--5--4--2----|--5--5--4--| 
C#|--0-----4--5--4--2----|--5--5--4--| 

D#|----------------------|-----------------------| 
A#|----------------------|-----------------------| 
F#|----------------------|-----------------------| 
C#|--0-----4--5--4--2----|--5--5--4--7--5--4--5--| 
G#|--0-----4--5--4--2----|--5--5--4--7--5--4--5--| 
C#|--0-----4--5--4--2----|--5--5--4--7--5--4--5--|(x2) 

Breakdown Chorus Guitar 2: 
"I Could Never Resist..." 
D#|-----| 
A#|-----| 
F#|-----| 
C#|--0--| 
G#|--0--| 
C#|--0--| 

D#|------------------|------------------|---------------| 
A#|------------------|------------------|---------------| 
F#|------------------|------------------|---------------| 
C#|--0-0-0-0-0-0-0-0-|-0-0-0-0-0-0-0-0--|--2----4----5--|  
G#|--0-0-0-0-0-0-0-0-|-0-0-0-0-0-0-0-0--|--2----4----5--|  
C#|--0-0-0-0-0-0-0-0-|-0-0-0-0-0-0-0-0--|--2----4----5--|  

Breakdown Chorus Guitar 1: 
"In Time I Find It Hard To Rewind..." 
D#|-----------------|-------------|--------------------------------------------------------| 
A#|-----------------|-------------|--------------------------------------------------------| 
F#|-7--7-7-7-7-7-7--|--7-7-7-7-7--|--7/9/11--11-11-14---14--14--16---16-16-16-16-16-16-16--| 
C#|-x---------------|-------------|--x-x-x---x--x---x----x---x---x----x--x--x--x--x--x--x--| 
G#|-5---------------|-------------|--5/7/9---9--9--12---12--12--14---12-12-12-12-12-12-12--| 
C#|-----------------|-------------|--------------------------------------------------------| 

Chorus Guitar 1: 
"I Could Never Resist..." 
D#|----------------------------------| 
A#|----------------------------------| 
F#|--14--14--14--x-x--7--x-x-9/11\9--| 
C#|--x---x---x---x-x--x--x-x--x-x-x--| 
G#|--12--12--12--x-x--5--x-x--7/9\7--| 
C#|----------------------------------| 

D#|---------------------------------|---------------------------------| 
A#|---------------------------------|---------------------------------| 
F#|--14--14-x-x-14--14--16--14--16--|--x--14--14--x-x--7--7--7--7--7--| 
C#|---x---x-x-x--x---x---x---x---x--|--x---x---x--x-x--x--x--x--x--x--| 
G#|--12--12-x-x-12--12--14--12--12--|--x--12--12--x-x--5--5--5--5--5--| 
C#|---------------------------------|---------------------------------| 

D#|---------------------------------|--------------------------------| 
A#|---------------------------------|--------------------------------| 
F#|--14--14-x-x-14--14--16--14--16--|--x--14--14--x-x--7--x-x--7--7--| 
C#|---x---x-x-x--x---x---x---x---x--|--x---x---x--x-x--x--x-x--x--x--| 
G#|--12--12-x-x-12--12--14--12--12--|--x--12--12--x-x--5--x-x--5--5--| 
C#|---------------------------------|--------------------------------| 

D#|-------------------------|--------------| 
A#|-------------------------|------15------| 
F#|--11-11-11-9--9--14--14--|--14------14--| 
C#|--x--x--x--x--x---x---x--|--------------| 
G#|--9--9--9--7--7--12--12--|--------------| 
C#|-------------------------|--------------| 

D#|---------------------------------------------|------------------| 
A#|---------------------------------------------|------------------| 
F#|--11-11-11-9--9--14--14--14--14--14--14--14--|--14--14--14--14--| 
C#|--x--x--x--x--x---x---x---x---x---x---x---x--|---x---x---x---x--| 
G#|--9--9--9--7--7--12--12--12--12--12--12--12--|--12--12--12--12--| 
C#|---------------------------------------------|------------------| 

Final Chorus Guitar 1: 
"I Could Never Resist..." 
D#|-----------------------------|---------------------------| 
A#|-----------------------------|---------------------------| 
F#|--14--14--14--12--14--14--14-|--14--14--14---7---9/11\9--| 
C#|--x---x---x---x----x---x---x-|---x---x---x---x---x-x-x---| 
G#|--12--12--12--14--12--12--12-|--12--12--12---5---7/9\7---| 
C#|-----------------------------|---------------------------| 

D#|-----------------------------|---------------------------| 
A#|-----------------------------|---------------------------| 
F#|--14--14--14--12--14--14--14-|--14--14--14---7--x--7--7--| 
C#|--x---x---x---x----x---x---x-|---x---x---x---x--x--x--x--| 
G#|--12--12--12--14--12--12--12-|--12--12--12---5--x--5--5--| 
C#|-----------------------------|---------------------------| 

D#|--------------| 
A#|--------------| 
F#|--7--7-----7--| 
C#|--7--7--7--7--| 
G#|--------0-----| 
C#|--------------| (x4) 


Chorus Guitar 2: 
"I Could Never Resist..." 
D#|------------------------------| 
A#|------------------------------| 
F#|------------------------------| 
C#|--5--5--5--x-x--5--x-x--5--5--| 
G#|--5--5--5--x-x--5--x-x--5--5--| 
C#|--5--5--5--x-x--5--x-x--5--5--| 

D#|-------------------------|----------------------------| 
A#|-------------------------|----------------------------| 
F#|--7--7--x-----4/7--------|----------------------------| 
C#|--7--7--x--7--4/7--5--5--|--x--5--5--x-x--5--5--5--5--| 
G#|--5--5--x--7--2/5--5--5--|--x--5--5--x-x--5--5--5--5--| 
C#|-----------7-------5--5--|--x--5--5--x-x--5--5--5--5--| 

D#|-------------------------|---------------------------| 
A#|-------------------------|---------------------------| 
F#|--7--7--x-----4/7--------|---------------------------| 
C#|--7--7--x--7--4/7--5--5--|--x--5--5--x-x--5--x-x--5--| 
G#|--7--7--x--7--2/5--5--5--|--x--5--5--x-x--5--x-x--5--| 
C#|-----------7-------5--5--|--x--5--5--x-x--5--x-x--5--| 

D#|-----------------------| 
A#|-----------------------| 
F#|-----------------------| 
C#|--2--2--2--4--4--4--5--| 
G#|--2--2--2--4--4--4--5--| 
C#|--2--2--2--4--4--4--5--| 

D#|-----------------------------------------------| 
A#|-----------------------------------------------| 
F#|-----------------------------------------------| 
C#|--2--2--2--4--4--4--5--5--5--5--5--5--5--5--5--| 
G#|--2--2--2--4--4--4--5--5--5--5--5--5--5--5--5--| 
C#|--2--2--2--4--4--4--5--5--5--5--5--5--5--5--5--| 

Final Chorus Guitar 1: 
"I Could Never Resist..." 
D#|---------------------------------------------------| 
A#|---------------------------------------------------| 
F#|--7--7--7--7-----4/7-------------------------------| 
C#|--7--7--7--7--7--4/7--5--5--5--5--5--5--5--5--5----| 
G#|--5--5--5--5--7--2/5--5--5--5--5--5--5--5--5--5----| 
C#|--------------7-------5--5--5--5--5--5--5--5--5----|(x2) 

D#|-----| 
A#|-----| 
F#|-----| 
C#|--0--| 
G#|--0--| 
C#|--0--| 


************************************ 

| x   Dead note 
| /   Slide up 
| \   Slide down 
| ~   Vibrato 


************************************ 
		  

See also:

tabs Ira! - Envelheço Na Cidade(Solo - Acustivo Mtv) tabs Deep Purple - No No No tabs Deep Purple - Black Night tabs Deep Purple - Smoke on the water(ver. 2) tabs Deep Purple - Since Youve Been Gone tabs Albert Hammond Jr - In My Room
e-chords

Other versions:

tabs State Champs - Prepare To Be Noticed
auto scroll beats size up size down change color hide chords drawings
tab show chords e-chords YouTube Clip e-chords hide all tabs e-chords go to top tab

share