State Champs

Eyes Closed

State Champs

tabs

by  HEBEALMEIDA

save to print version add songbook text version e-mail correct tuner
chordsukulelecavacokeyboardtabbassdrumsharmonicaflute Guitar Pro
close

there isn't a video lesson for this song

chords

Eyes Closed

	  		
Intro: 0:00 
Upstroke, ring open 
D#|----0----------------------------------------------------------------------| 
A#|----0----------------------------------------------------------------------|  x2 
F#|----0----------------------------------------------------------------------| 
C#|----0----------------------------------------------------------------------| 
G#|---------------------------------------------------------------------------| 
C#|---------------------------------------------------------------------------| 

0:06: Rhythm 
D#|---------------------------------------------------------------------------| 
A#|---------------------------------------------------------------------------| 
F#|-----------4--4--7--7------------------------------------------------------|  x4 
C#|----2------4--4--7--7-----------7--7------7--7--7--------------------------| 
G#|----2------2--2--5--5-----------7--7------7--7--7--------------------------| 
C#|----2---------------------------7--7------7--7--7--------------------------| 

   Lead 
D#|---9-----9-----9-----9-----9-----9-----10-----10---------------------------|  x4 
A#|------9-----9-----9-----9-----9-----9------9------9------------------------| 
F#|---------------------------------------------------------------------------| 
C#|---------------------------------------------------------------------------| 
G#|---------------------------------------------------------------------------| 
C#|---------------------------------------------------------------------------| 




Verse: 0:17 
D#|---------------------------------------------------------------------------| 
A#|---------------------------------------------------------------------------| 
F#|---------------------------------------------------------------------------| 
C#|---------------------------------------------------------------------------| 
G#|----7--7--7--7--7--7--7--7--6--6--6--6-------------------------------------| 
C#|----------------------------------------9--9--9--9-------------------------| 
       *  *  *  *  *  *  *  *  *  *  *  *  *  *  *  * 

D#|---------------------------------------------------------------------------| 
A#|---------------------------------------------------------------------------| 
F#|---------------------------------------------------------------------------| 
C#|----7--7--7--7--7--7--7--7--7--7--7--7--7--7--7--7-------------------------| 
G#|----7--7--7--7--7--7--7--7--7--7--7--7--7--7--7--7-------------------------| 
C#|----7--7--7--7--7--7--7--7--7--7--7--7--7--7--7--7-------------------------| 

Lead 
D#|---------------------------------------------------------------------------| 
A#|---------------------------------------------------------------------------| 
F#|----9--9--9--9--9--13-13-13-13--11-11-11-11-9--9--9------------------------| 
C#|----x--x--x--x--x--x--x--x--x---x--x--x--x--x--x--x------------------------| 
G#|----7--7--7--7--7--11-11-11-11--9--9--9--9--7--7--7------------------------| 
C#|---------------------------------------------------------------------------| 



Rhythm 
D#|---------------------------------------------------------------------------| 
A#|---------------------------------------------------------------------------| 
F#|---------------------------------------------------------------------------| 
C#|---------------------------------------------------------------------------| 
G#|----7--7--7--7--7--7--7--7--6--6--6--6-------------------------------------| 
C#|----------------------------------------9--9--9--9-------------------------| 
       *  *  *  *  *  *  *  *  *  *  *  *  *  *  *  * 
Lead 
D#|---------------------------------------------------------------------------| 
A#|----9--9--9--9--9--9--9--9--12-12-12-12------------------------------------| 
F#|----------------------------------------8--8--8--8-------------------------| 
C#|---------------------------------------------------------------------------| 
G#|---------------------------------------------------------------------------| 
C#|---------------------------------------------------------------------------| 
       *  *  *  *  *  *  *  *  *  *  *  *  *  *  *  * 


Rhythm 
D#|---------------------------------------------------------------------------| 
A#|---------------------------------------------------------------------------| 
F#|---------------------------------------------------------------------------| 
C#|----7--7--7--7--7--7--7--7--7--7--7--7--7--7--7--7-------------------------| 
G#|----7--7--7--7--7--7--7--7--7--7--7--7--7--7--7--7-------------------------| 
C#|----7--7--7--7--7--7--7--7--7--7--7--7--7--7--7--7-------------------------| 

Lead 
D#|---------------------------------------------------------------------------| 
A#|---------------------------------------------------------------------------| 
F#|----9--9--9--9--9--11-11-11-11-9--9--9--9--9--9--9-------------------------| 
C#|----x--x--x--x--x--x--x--x--x--x--x--x--x--x--x--x-------------------------| 
G#|----7--7--7--7--7--9--9--9--9--7--7--7--7--7--7--7-------------------------| 
C#|---------------------------------------------------------------------------| 



Rhythm 
D#|---------------------------------------------------------------------------| 
A#|---------------------------------------------------------------------------| 
F#|----9--9------------------8--8-------4--4----------------------------------| 
C#|----9--9------------------9--9-------4--4----------------------------------| 
G#|----7--7------------------6--6-------2--2----------------------------------| 
C#|---------------------------------------------------------------------------| 

D#|---------------------------------------------------------------------------| 
A#|---------------------------------------------------------------------------| 
F#|---------------------------------------------------------------------------| 
C#|----7--7--7--7--7--7--7--7--7--7--7--7--7--7--7--7-------------------------| 
G#|----7--7--7--7--7--7--7--7--7--7--7--7--7--7--7--7-------------------------| 
C#|----7--7--7--7--7--7--7--7--7--7--7--7--7--7--7--7-------------------------| 

D#|---------------------------------------------------------------------------| 
A#|---------------------------------------------------------------------------| 
F#|----9--9------------------8--8-------4--4----------------------------------| 
C#|----9--9------------------9--9-------4--4----------------------------------| 
G#|----7--7------------------6--6-------2--2----------------------------------| 
C#|---------------------------------------------------------------------------| 

D#|---------------------------------------------------------------------------| 
A#|---------------------------------------------(5)+--------------------------| 
F#|----7--7--7--------7-------------------------(5)+--------------------------| 
C#|----7--7--7--------7----7--------------------(5)+--------------------------| 
G#|----5--5--5--------5----7--------------------------------------------------| 
C#|------------------------7--------7-7-7--7----------------------------------| 
                                    * * *  * 


Lead 
D#|---------------------------------------------------------------------------| 
A#|---------------------------------------------------------------------------| 
F#|-------------9------------8--9-------8-------------------------------------| 
C#|----6--7--9-------9----9----------------9--7--6----------------------------| 
G#|----------------------------------7----------------------------------------| 
C#|---------------------------------------------------------------------------| 

D#|---------------------------------------------------------------------------| 
A#|---------------------------------------------------------------------------| 
F#|----14-14-14-14-14-13-13-13-13--11-11-11-11-9--9--9------------------------| 
C#|----x--x--x--x--x--x--x--x--x---x--x--x--x--x--x--x------------------------| 
G#|----12-12-12-12-12-11-11-11-11--9--9--9--9--7--7--7------------------------| 
C#|---------------------------------------------------------------------------| 


D#|---------------------------------------------------------------------------| 
A#|-------------------------------------7--9--7--9----------------------------| 
F#|-------------9------------8--9----9----------------------------------------| 
C#|----6--7--9-------9----9---------------------------------------------------| 
G#|---------------------------------------------------------------------------| 
C#|---------------------------------------------------------------------------| 





   
Pre Chorus: 0:39 
Rhythm 
D#|---------------------------------------------------------------------------| 
A#|---------------------------------------------------------------------------| 
F#|---------------------------------------------------------------------------| 
C#|----7--------7--------7----6--------6--------6-----------------------------| 
G#|----7--------7--------7----7--------7--------7-----------------------------| 
C#|----7--------7--------7----6--------6--------6-----------------------------| 

D#|---------------------------------------------------------------------------| 
A#|---------------------------------------------------------------------------| 
F#|---------------------------------------------------------------------------| 
C#|----4--------4--------4----6--------6--------6-----------------------------| 
G#|----4--------4--------4----7--------7--------7-----------------------------| 
C#|----4--------4--------4----6--------6--------6-----------------------------| 

D#|---------------------------------------------------------------------------| 
A#|---------------------------------------------------------------------------| 
F#|------------------------------------------------4--------------------------| 
C#|----7--------7--------7----6--------------------4--------------------------| 
G#|----7--------7--------7----7--------------------2--------------------------| 
C#|----7--------7--------7----6--------7--6--4--2-----------------------------| 


D#|---------------------------------------------------------------------------| 
A#|---------------------------------------------------------------------------| 
F#|---------------------------------4--4--4--4--4--4--------------------------| 
C#|---------------------------------4--4--4--4--4--4--------------------------| 
G#|---------------------------------2--2--2--2--2--2--------------------------| 
C#|---------------------------------------------------------------------------| 
                                    *  *  *  *  *  * 


Lead 
D#|----12h0----12h0----12h0--12h0---12h0----12h0------------------------------| 
A#|---------12-------12-----------12-----12-----------------------------------| 
F#|---------------------------------------------------------------------------| 
C#|---------------------------------------------------------------------------| 
G#|---------------------------------------------------------------------------| 
C#|---------------------------------------------------------------------------| 
                                       
D#|----12h0----12h0----12h0--12h0---12-11h12h11-------------------------------| 
A#|---------12-------12-----------12------------12----------------------------| 
F#|---------------------------------------------------------------------------| 
C#|---------------------------------------------------------------------------| 
G#|---------------------------------------------------------------------------| 
C#|---------------------------------------------------------------------------| 

D#|----12h0----12h0----12h0--12h0---12-11h12h11-------------------------------| 
A#|---------12-------12-----------12------------12----------------------------| 
F#|---------------------------------------------------------------------------| 
C#|---------------------------------------------------------------------------| 
G#|---------------------------------------------------------------------------| 
C#|---------------------------------------------------------------------------| 




Chorus: 0:50 
Rhythm 
D#|---------------------------------------------------------------------------| 
A#|---------------------------------------------------------------------------| 
F#|---------------------------------------------------------------------------| 
C#|----2----2----2--2--2--6----6--6----6--6--6--6-----------------------------| 
G#|----2----2----2--2--2--7----7--7----7--7--7--7-----------------------------| 
C#|----2----2----2--2--2--6----6--6----6--6--6--6-----------------------------| 
                                                                                   x2 
D#|---------------------------------------------------------------------------| 
A#|---------------------------------------------------------------------------| 
F#|---------------------------------------------------------------------------| 
C#|----7----7----7--7--7--7----7--7----7--7--7--7-----------------------------| 
G#|----7----7----7--7--7--7----7--7----7--7--7--7-----------------------------| 
C#|----7----7----7--7--7--7----7--7----7--7--7--7-----------------------------| 


Lead 
D#|---------------------------------------------------------------------------| 
A#|---------------------------------------------------------------------------| 
F#|----9--9--9--11-11-11-11-x----13-13-13-13-9--9--9--------------------------| 
C#|----x--x--x--x--x--x--x--x----x--x--x--x--x--x--x--------------------------| 
G#|----7--7--7--9--9--9--9--x----11-11-11-11-7--7--7--------------------------| 
C#|---------------------------------------------------------------------------| 

D#|---------------------------------------------------------------------------| 
A#|---------------------------------------------------------------------------| 
F#|----9--9--9--9--9--9--9--x----13-13-13-14-14-13-13-------------------------| 
C#|----x--x--x--x--x--x--x--x----x--x--x--x--x--x--x--------------------------| 
G#|----7--7--7--9--9--7--7--x----11-11-11-12-12-11-11-------------------------| 
C#|---------------------------------------------------------------------------| 

D#|---------------------------------------------------------------------------| 
A#|---------------------------------------------------------------------------| 
F#|----9--9--9--11-11-11-11-x----13-13-13-13-9--9--9--------------------------| 
C#|----x--x--x--x--x--x--x--x----x--x--x--x--x--x--x--------------------------| 
G#|----7--7--7--9--9--9--9--x----11-11-11-11-7--7--7--------------------------| 
C#|---------------------------------------------------------------------------| 

D#|---------------------------------------------------------------------------| 
A#|---------------------------------------------------------------------------| 
F#|----9--9--9--9--9--9--9--13-13-9-9-14-14-13-13-13--------------------------| 
C#|----x--x--x--x--x--x--x--x--x--x-x-x--x--x--x--x---------------------------| 
G#|----7--7--7--9--9--7--7--11-11-7-7-12-12-11-11-11--------------------------| 
C#|---------------------------------------------------------------------------| 


1:02 
Rhythm 
D#|---------------------------------------------------------------------------| 
A#|---------------------------------------------------------------------------| 
F#|----6--6--6--6--6--6--6--6-------------------------------------------------| 
C#|----6--6--6--6--6--6--6--6--7--7--7--7--7--7--7--7-------------------------| 
G#|----4--4--4--4--4--4--4--4--7--7--7--7--7--7--7--7-------------------------| 
C#|----------------------------7--7--7--7--7--7--7--7-------------------------| 

D#|---------------------------------------------------------------------------| 
A#|---------------------------------------------------------------------------| 
F#|-------------------------4-----4--4--4--4--4--4--4-------------------------| 
C#|----2--2--2--2--2--2--2--4-----4--4--4--4--4--4--4-------------------------| 
G#|----2--2--2--2--2--2--2--2-----2--2--2--2--2--2--2-------------------------| 
C#|----2--2--2--2--2--2--2----------------------------------------------------| 

D#|---------------------------------------------------------------------------| 
A#|---------------------------------------------------------------------------| 
F#|---------------------------------------------------------------------------| 
C#|----2-----2-----2--2--2--6----6--6-----6--6--6--6--------------------------| 
G#|----2-----2-----2--2--2--7----7--7-----7--7--7--7--------------------------| 
C#|----2-----2-----2--2--2--6----6--6-----6--6--6--6--------------------------| 

D#|---------------------------------------------------------------------------| 
A#|---------------------------------------------------------------------------| 
F#|---------------------------------------------------------------------------| 
C#|----7-----7-----7--7--7--7----7--7-----7--6--4--2--------------------------| 
G#|----7-----7-----7--7--7--7----7--7-----7--6--4--2--------------------------| 
C#|----7-----7-----7--7--7--7----7--7-----7--6--4--2--------------------------| 



Lead 
D#|---------------------------------------------------------------------------| 
A#|----------9-----------9-----------9----9--10--9----------------------------| 
F#|-------11---11-----11---11-----11---11-------------------------------------| 
C#|---------------------------------------------------------------------------| 
G#|---------------------------------------------------------------------------| 
C#|---------------------------------------------------------------------------| 

D#|---------------------------------------------------------------------------| 
A#|----------9-----------9-----------9----9--7-----7--------------------------| 
F#|-------11---11-----11---11-----11---11-------9-----------------------------| 
C#|---------------------------------------------------------------------------| 
G#|---------------------------------------------------------------------------| 
C#|---------------------------------------------------------------------------| 

D#|-------------------------7-------------------------------------------------| 
A#|----5----------------------------------------------------------------------| 
F#|---------------------------------------------------------------------------| 
C#|---------------------------------------------------------------------------| 
G#|---------------------------------------------------------------------------| 
C#|---------------------------------------------------------------------------| 

D#|----9--9--9--9--9--9--9--9--9--9--9--9--9--9--9--9-------------------------| 
A#|----9--9--9--9--9--9--9--9--9--9--9--9--9--9--9--9-------------------------| 
F#|---------------------------------------------------------------------------| 
C#|---------------------------------------------------------------------------| 
G#|---------------------------------------------------------------------------| 
C#|---------------------------------------------------------------------------| 





Intro Riff repeats 
1:13: Rhythm 
D#|---------------------------------------------------------------------------| 
A#|---------------------------------------------------------------------------| 
F#|-----------4--4--7--7------------------------------------------------------|  x2 
C#|----2------4--4--7--7-----------7--7------7--7--7--------------------------| 
G#|----2------2--2--5--5-----------7--7------7--7--7--------------------------| 
C#|----2---------------------------7--7------7--7--7--------------------------| 

   Lead 
D#|---9-----9-----9-----9-----9-----9-----10-----10---------------------------|  x2 
A#|------9-----9-----9-----9-----9-----9------9------9------------------------| 
F#|---------------------------------------------------------------------------| 
C#|---------------------------------------------------------------------------| 
G#|---------------------------------------------------------------------------| 
C#|---------------------------------------------------------------------------| 






Verse: 1:18 
Rhythm 
D#|---------------------------------------------------------------------------| 
A#|---------------------------------------------------------------------------| 
F#|---------------------------------------------------------------------------| 
C#|---------------------------------------------------------------------------| 
G#|----7--7--7--7--7--7--7--7--6--6--6--6-------------------------------------| 
C#|----------------------------------------9--9--9--9-------------------------| 
       *  *  *  *  *  *  *  *  *  *  *  *  *  *  *  * 

D#|---------------------------------------------------------------------------| 
A#|---------------------------------------------------------------------------| 
F#|---------------------------------------------------------------------------| 
C#|----7--7--7--7--7--7--7--7--7--7--7--7--7--7--7--7-------------------------| 
G#|----7--7--7--7--7--7--7--7--7--7--7--7--7--7--7--7-------------------------| 
C#|----7--7--7--7--7--7--7--7--7--7--7--7--7--7--7--7-------------------------| 

Lead 
D#|---------------------------------------------------------------------------| 
A#|---------------------------------------------------------------------------| 
F#|----9--9--9--9--9--13-13-13-13--11-11-11-11-9--9--9------------------------| 
C#|----x--x--x--x--x--x--x--x--x---x--x--x--x--x--x--x------------------------| 
G#|----7--7--7--7--7--11-11-11-11--9--9--9--9--7--7--7------------------------| 
C#|---------------------------------------------------------------------------| 



Rhythm  
D#|---------------------------------------------------------------------------| 
A#|---------------------------------------------------------------------------| 
F#|---------------------------------------------------------------------------| 
C#|---------------------------------------------------------------------------| 
G#|----7--7--7--7--7--7--7--7--6--6--6--6-------------------------------------| 
C#|----------------------------------------9--9--9--9-------------------------| 
       *  *  *  *  *  *  *  *  *  *  *  *  *  *  *  * 

D#|---------------------------------------------------------------------------| 
A#|---------------------------------------------(5)+--------------------------| 
F#|----7--7--7--------7-------------------------(5)+--------------------------| 
C#|----7--7--7--------7----7--------------------(5)+--------------------------| 
G#|----5--5--5--------5----7--------------------------------------------------| 
C#|------------------------7--------7-7-7--7----------------------------------| 
                                    * * *  * 
   



Pre Chorus: 1:29 
Rhythm 
D#|---------------------------------------------------------------------------| 
A#|---------------------------------------------------------------------------| 
F#|---------------------------------------------------------------------------| 
C#|----7--------7--------7----6--------6--------6-----------------------------| 
G#|----7--------7--------7----7--------7--------7-----------------------------| 
C#|----7--------7--------7----6--------6--------6-----------------------------| 

D#|---------------------------------------------------------------------------| 
A#|---------------------------------------------------------------------------| 
F#|---------------------------------------------------------------------------| 
C#|----4--------4--------4----6--------6--------6-----------------------------| 
G#|----4--------4--------4----7--------7--------7-----------------------------| 
C#|----4--------4--------4----6--------6--------6-----------------------------| 

D#|---------------------------------------------------------------------------| 
A#|---------------------------------------------------------------------------| 
F#|------------------------------------------------4--------------------------| 
C#|----7--------7--------7----6--------------------4--------------------------| 
G#|----7--------7--------7----7--------------------2--------------------------| 
C#|----7--------7--------7----6--------7--6--4--2-----------------------------| 


D#|---------------------------------------------------------------------------| 
A#|---------------------------------------------------------------------------| 
F#|---------------------------------4--4--4--4--4--4--------------------------| 
C#|---------------------------------4--4--4--4--4--4--------------------------| 
G#|---------------------------------2--2--2--2--2--2--------------------------| 
C#|---------------------------------------------------------------------------| 
                                    *  *  *  *  *  * 


Lead 
D#|----12h0----12h0----12h0--12h0---12h0----12h0------------------------------| 
A#|---------12-------12-----------12-----12-----------------------------------| 
F#|---------------------------------------------------------------------------| 
C#|---------------------------------------------------------------------------| 
G#|---------------------------------------------------------------------------| 
C#|---------------------------------------------------------------------------| 
                                       
D#|----12h0----12h0----12h0--12h0---12-11h12h11-------------------------------| 
A#|---------12-------12-----------12------------12----------------------------| 
F#|---------------------------------------------------------------------------| 
C#|---------------------------------------------------------------------------| 
G#|---------------------------------------------------------------------------| 
C#|---------------------------------------------------------------------------| 

D#|----12h0----12h0----12h0--12h0---12-11h12h11-------------------------------| 
A#|---------12-------12-----------12------------12----------------------------| 
F#|---------------------------------------------------------------------------| 
C#|---------------------------------------------------------------------------| 
G#|---------------------------------------------------------------------------| 
C#|---------------------------------------------------------------------------| 




Chorus: 0:50 
Rhythm 
D#|---------------------------------------------------------------------------| 
A#|---------------------------------------------------------------------------| 
F#|---------------------------------------------------------------------------| 
C#|----2----2----2--2--2--6----6--6----6--6--6--6-----------------------------| 
G#|----2----2----2--2--2--7----7--7----7--7--7--7-----------------------------| 
C#|----2----2----2--2--2--6----6--6----6--6--6--6-----------------------------| 
                                                                                   x2 
D#|---------------------------------------------------------------------------| 
A#|---------------------------------------------------------------------------| 
F#|---------------------------------------------------------------------------| 
C#|----7----7----7--7--7--7----7--7----7--7--7--7-----------------------------| 
G#|----7----7----7--7--7--7----7--7----7--7--7--7-----------------------------| 
C#|----7----7----7--7--7--7----7--7----7--7--7--7-----------------------------| 


Lead 
D#|---------------------------------------------------------------------------| 
A#|---------------------------------------------------------------------------| 
F#|----9--9--9--11-11-11-11-x----13-13-13-13-9--9--9--------------------------| 
C#|----x--x--x--x--x--x--x--x----x--x--x--x--x--x--x--------------------------| 
G#|----7--7--7--9--9--9--9--x----11-11-11-11-7--7--7--------------------------| 
C#|---------------------------------------------------------------------------| 

D#|---------------------------------------------------------------------------| 
A#|---------------------------------------------------------------------------| 
F#|----9--9--9--9--9--9--9--x----13-13-13-14-14-13-13-------------------------| 
C#|----x--x--x--x--x--x--x--x----x--x--x--x--x--x--x--------------------------| 
G#|----7--7--7--9--9--7--7--x----11-11-11-12-12-11-11-------------------------| 
C#|---------------------------------------------------------------------------| 

D#|---------------------------------------------------------------------------| 
A#|---------------------------------------------------------------------------| 
F#|----9--9--9--11-11-11-11-x----13-13-13-13-9--9--9--------------------------| 
C#|----x--x--x--x--x--x--x--x----x--x--x--x--x--x--x--------------------------| 
G#|----7--7--7--9--9--9--9--x----11-11-11-11-7--7--7--------------------------| 
C#|---------------------------------------------------------------------------| 

D#|---------------------------------------------------------------------------| 
A#|---------------------------------------------------------------------------| 
F#|----9--9--9--9--9--9--9--13-13-9-9-14-14-13-13-13--------------------------| 
C#|----x--x--x--x--x--x--x--x--x--x-x-x--x--x--x--x---------------------------| 
G#|----7--7--7--9--9--7--7--11-11-7-7-12-12-11-11-11--------------------------| 
C#|---------------------------------------------------------------------------| 


1:02 
Rhythm 
D#|---------------------------------------------------------------------------| 
A#|---------------------------------------------------------------------------| 
F#|----6--6--6--6--6--6--6--6-------------------------------------------------| 
C#|----6--6--6--6--6--6--6--6--7--7--7--7--7--7--7--7-------------------------| 
G#|----4--4--4--4--4--4--4--4--7--7--7--7--7--7--7--7-------------------------| 
C#|----------------------------7--7--7--7--7--7--7--7-------------------------| 

D#|---------------------------------------------------------------------------| 
A#|---------------------------------------------------------------------------| 
F#|-------------------------4-----4--4--4--4--4--4--4-------------------------| 
C#|----2--2--2--2--2--2--2--4-----4--4--4--4--4--4--4-------------------------| 
G#|----2--2--2--2--2--2--2--2-----2--2--2--2--2--2--2-------------------------| 
C#|----2--2--2--2--2--2--2----------------------------------------------------| 

D#|---------------------------------------------------------------------------| 
A#|---------------------------------------------------------------------------| 
F#|---------------------------------------------------------------------------| 
C#|----2-----2-----2--2--2--6----6--6-----6--6--6--6--------------------------| 
G#|----2-----2-----2--2--2--7----7--7-----7--7--7--7--------------------------| 
C#|----2-----2-----2--2--2--6----6--6-----6--6--6--6--------------------------| 

D#|---------------------------------------------------------------------------| 
A#|---------------------------------------------------------------------------| 
F#|---------------------------------------------------------------------------| 
C#|----7-----7-----7--7--7--7----7--7-----7--6--4--2--------------------------| 
G#|----7-----7-----7--7--7--7----7--7-----7--6--4--2--------------------------| 
C#|----7-----7-----7--7--7--7----7--7-----7--6--4--2--------------------------| 



Lead 
D#|---------------------------------------------------------------------------| 
A#|----------9-----------9-----------9----9--10--9----------------------------| 
F#|-------11---11-----11---11-----11---11-------------------------------------| 
C#|---------------------------------------------------------------------------| 
G#|---------------------------------------------------------------------------| 
C#|---------------------------------------------------------------------------| 

D#|---------------------------------------------------------------------------| 
A#|----------9-----------9-----------9----9--7-----7--------------------------| 
F#|-------11---11-----11---11-----11---11-------9-----------------------------| 
C#|---------------------------------------------------------------------------| 
G#|---------------------------------------------------------------------------| 
C#|---------------------------------------------------------------------------| 

D#|-------------------------7-------------------------------------------------| 
A#|----5----------------------------------------------------------------------| 
F#|---------------------------------------------------------------------------| 
C#|---------------------------------------------------------------------------| 
G#|---------------------------------------------------------------------------| 
C#|---------------------------------------------------------------------------| 

D#|----9--9--9--9--9--9--9--9--9--9--9--9--9--9--9--9-------------------------| 
A#|----9--9--9--9--9--9--9--9--9--9--9--9--9--9--9--9-------------------------| 
F#|---------------------------------------------------------------------------| 
C#|---------------------------------------------------------------------------| 
G#|---------------------------------------------------------------------------| 
C#|---------------------------------------------------------------------------| 





Bridge: 2:03 
Rhythm L 
D#|---------------------------------------------------------------------------| 
A#|---------------------------------------------------------------------------| 
F#|----9-----------------------11---------------------------------------------| 
C#|----x-----------------------x----------------------------------------------| 
G#|----7-----------------------9----------------------------------------------| 
C#|---------------------------------------------------------------------------| 

D#|---------------------------------------------------------------------------| 
A#|---------------------------------------------------------------------------| 
F#|-------9--11----11-9-----9--13----13----13-9--9--9-------------------------| 
C#|-------x--x-----x--x-----x--x-----x-----x--x--x--x-------------------------| 
G#|-------7--9-----9--7-----7--11----11----11-7--7--7-------------------------| 
C#|---------------------------------------------------------------------------| 

D#|---------------------------------------------------------------------------| 
A#|---------------------------------------------------------------------------| 
F#|----9-----------------------8----------------------------------------------| 
C#|----x-----------------------x----------------------------------------------| 
G#|----7-----------------------6----------------------------------------------| 
C#|---------------------------------------------------------------------------| 

D#|---------------------------------------------------------------------------| 
A#|---------------------------------------------------------------------------| 
F#|-------9--11----11-9-----9--13----13----13-9--9--9-------------------------| 
C#|-------x--x-----x--x-----x--x-----x-----x--x--x--x-------------------------| 
G#|-------7--9-----9--7-----7--11----11----11-7--7--7-------------------------| 
C#|---------------------------------------------------------------------------| 



Rhythm R 
D#|---------------------------------------------------------------------------| 
A#|----5-----------------------7----------------------------------------------| 
F#|----x-----------------------x----------------------------------------------| 
C#|----x-----------------------x----------------------------------------------| 
G#|----4-----------------------3----------------------------------------------| 
C#|---------------------------------------------------------------------------| 

D#|---------------------------------------------------------------------------| 
A#|---------------------------------------------------------------------------| 
F#|---------------------------------------------------------------------------| 
C#|-------2--2-----2--2-----2--2-----2-----2--2--2--2-------------------------| 
G#|-------2--2-----2--2-----2--2-----2-----2--2--2--2-------------------------| 
C#|-------2--2-----2--2-----2--2-----2-----2--2--2--2-------------------------| 

D#|---------------------------------------------------------------------------| 
A#|----5-----------------------4----------------------------------------------| 
F#|----x-----------------------x----------------------------------------------| 
C#|----x-----------------------x----------------------------------------------| 
G#|----4-----------------------2----------------------------------------------| 
C#|---------------------------------------------------------------------------| 

D#|---------------------------------------------------------------------------| 
A#|---------------------------------------------------------------------------| 
F#|---------------------------------------------------------------------------| 
C#|-------2--2-----2--2-----2--2-----2-----2--2--2--2-------------------------| 
G#|-------2--2-----2--2-----2--2-----2-----2--2--2--2-------------------------| 
C#|-------2--2-----2--2-----2--2-----2-----2--2--2--2-------------------------| 



Rhythm 
D#|---------------------------------------------------------------------------| 
A#|---------------------------------------------------------------------------| 
F#|----6--6--6--6--6--6--6--6--5--5--5--5--5--5--5--5-------------------------| 
C#|----6--6--6--6--6--6--6--6--6--6--6--6--6--6--6--6-------------------------| 
G#|----4--4--4--4--4--4--4--4--3--3--3--3--3--3--3--3-------------------------| 
C#|---------------------------------------------------------------------------| 

D#|---------------------------------------------------------------------------| 
A#|---------------------------------------------------------------------------| 
F#|----4--4--4--4--4--4--4--4--2--2--2--2--2--2--2----------------------------| 
C#|----4--4--4--4--4--4--4--4--2--2--2--2--2--2--2--4-------------------------| 
G#|----2--2--2--2--2--2--2--2--0--0--0--0--0--0--0--4-------------------------| 
C#|-------------------------------------------------4-------------------------| 

D#|---------------------------------------------------------------------------| 
A#|---------------------------------------------------------------------------| 
F#|---------------------------------------------------------------------------| 
C#|-------4--4--4--4--4--4--4--6--6--6--6--6--6--6--7-------------------------| 
G#|-------4--4--4--4--4--4--4--6--6--6--6--6--6--6--7-------------------------| 
C#|-------4--4--4--4--4--4--4--6--6--6--6--6--6--6--7-------------------------| 

D#|---------------------------------------------------------------------------| 
A#|---------------------------------------------------------------------------| 
F#|---------------------------------------------------------------------------| 
C#|-------7--7--7--7--7--7--7--7--7--7--7--7--7--7--7-------------------------| 
G#|-------7--7--7--7--7--7--7--7--7--7--7--7--7--7--7-------------------------| 
C#|-------7--7--7--7--7--7--7--7--7--7--7--7--7--7--7-------------------------| 



Lead 
D#|----7-----7-----7-----7-----5-----5-----5-----5----------------------------| 
A#|-------5-----5-----5-----5-----5-----5-----5-----5-------------------------| 
F#|---------------------------------------------------------------------------| 
C#|---------------------------------------------------------------------------| 
G#|---------------------------------------------------------------------------| 
C#|---------------------------------------------------------------------------| 

D#|----7-----7-----7-----7-----5-----5-----5-----5--4-------------------------| 
A#|-------5-----5-----5-----5-----5-----5-----5-----5-------------------------| 
F#|---------------------------------------------------------------------------| 
C#|---------------------------------------------------------------------------| 
G#|---------------------------------------------------------------------------| 
C#|---------------------------------------------------------------------------| 

D#|------4--4--4--4--4--4--4--5--5--5--5--5--5--5--7--------------------------| 
A#|------5--5--5--5--5--5--5--5--5--5--5--5--5--5-----------------------------| 
F#|---------------------------------------------------------------------------| 
C#|---------------------------------------------------------------------------| 
G#|---------------------------------------------------------------------------| 
C#|---------------------------------------------------------------------------| 

D#|---------7-----7-----7-----4-----4-----4-----4-----------------------------| 
A#|------5-----5-----5-----5-----5-----5-----5-----5--------------------------| 
F#|---------------------------------------------------------------------------| 
C#|---------------------------------------------------------------------------| 
G#|---------------------------------------------------------------------------| 
C#|---------------------------------------------------------------------------| 



Rhythm 
D#|---------------------------------------------------------------------------| 
A#|---------------------------------------------------------------------------| 
F#|---------------------------------------------------------------------------| 
C#|----4----------------------6-----------------------------------------------| 
G#|----4----------------------6-----------------------------------------------| 
C#|----4----------------------6-----------------------------------------------| 

D#|---------------------------------------------------------------------------| 
A#|---------------------------------------------------------------------------| 
F#|---------------------------------------------------------------------------| 
C#|----7----------------------------------------------------------------------| 
G#|----7----------------------7--7--7--7--7--7--7-----------------------------| 
C#|----7----------------------7--7--7--7--7--7--7-----------------------------| 
                              *  *  *  *  *  *   


Lead 
D#|---------0-----------0-----------0-----------0-----------------------------| 
A#|----5----------------------7-----------------------------------------------| 
F#|---------------4-----------------------4-----------------------------------| 
C#|---------------------------------------------------------------------------| 
G#|---------------------------------------------------------------------------| 
C#|---------------------------------------------------------------------------| 

D#|----7----------------------------------------------------------------------| 
A#|----5----------------------------------------------------------------------| 
F#|---------------------------------------------------------------------------| 
C#|---------------------------------------------------------------------------| 
G#|---------------------------------------------------------------------------| 
C#|---------------------------------------------------------------------------| 




Chorus: 2:31 
Rhythm 
D#|---------------------------------------------------------------------------| 
A#|---------------------------------------------------------------------------| 
F#|---------------------------------------------------------------------------| 
C#|----2----2----2--2--2--6----6--6----6--6--6--6-----------------------------| 
G#|----2----2----2--2--2--7----7--7----7--7--7--7-----------------------------| 
C#|----2----2----2--2--2--6----6--6----6--6--6--6-----------------------------| 
                                                                                   x2 
D#|---------------------------------------------------------------------------| 
A#|---------------------------------------------------------------------------| 
F#|---------------------------------------------------------------------------| 
C#|----7----7----7--7--7--7----7--7----7--7--7--7-----------------------------| 
G#|----7----7----7--7--7--7----7--7----7--7--7--7-----------------------------| 
C#|----7----7----7--7--7--7----7--7----7--7--7--7-----------------------------| 


Lead 
D#|---------------------------------------------------------------------------| 
A#|---------------------------------------------------------------------------| 
F#|----9--9--9--11-11-11-11-x----13-13-13-13-9--9--9--------------------------| 
C#|----x--x--x--x--x--x--x--x----x--x--x--x--x--x--x--------------------------| 
G#|----7--7--7--9--9--9--9--x----11-11-11-11-7--7--7--------------------------| 
C#|---------------------------------------------------------------------------| 

D#|---------------------------------------------------------------------------| 
A#|---------------------------------------------------------------------------| 
F#|----9--9--9--9--9--9--9--x----13-13-13-14-14-13-13-------------------------| 
C#|----x--x--x--x--x--x--x--x----x--x--x--x--x--x--x--------------------------| 
G#|----7--7--7--9--9--7--7--x----11-11-11-12-12-11-11-------------------------| 
C#|---------------------------------------------------------------------------| 

D#|---------------------------------------------------------------------------| 
A#|---------------------------------------------------------------------------| 
F#|----9--9--9--11-11-11-11-x----13-13-13-13-9--9--9--------------------------| 
C#|----x--x--x--x--x--x--x--x----x--x--x--x--x--x--x--------------------------| 
G#|----7--7--7--9--9--9--9--x----11-11-11-11-7--7--7--------------------------| 
C#|---------------------------------------------------------------------------| 

D#|---------------------------------------------------------------------------| 
A#|---------------------------------------------------------------------------| 
F#|----9--9--9--9--9--9--9--13-13-9-9-14-14-13-13-13--------------------------| 
C#|----x--x--x--x--x--x--x--x--x--x-x-x--x--x--x--x---------------------------| 
G#|----7--7--7--9--9--7--7--11-11-7-7-12-12-11-11-11--------------------------| 
C#|---------------------------------------------------------------------------| 


1:02 
Rhythm 
D#|---------------------------------------------------------------------------| 
A#|---------------------------------------------------------------------------| 
F#|----6-----6-----6--6-----6-------------------------------------------------| 
C#|----6-----6-----6--6-----6-----7--7-----7--7--7--7-------------------------| 
G#|----4-----4-----4--4-----4-----7--7-----7--7--7--7-------------------------| 
C#|-------------------------------7--7-----7--7--7--7-------------------------| 

D#|---------------------------------------------------------------------------| 
A#|---------------------------------------------------------------------------| 
F#|-------------------------4-----4--4-----4--4--4----------------------------| 
C#|----2-----2-----2--2--2--4-----4--4-----4--4--4----------------------------| 
G#|----2-----2-----2--2--2--2-----2--2-----2--2--2----------------------------| 
C#|----2-----2-----2--2--2----------------------------------------------------| 

D#|---------------------------------------------------------------------------| 
A#|---------------------------------------------------------------------------| 
F#|---------------------------------------------------------------------------| 
C#|----2-----2-----2--2--2--6----6--6-----6--6--6--6--------------------------| 
G#|----2-----2-----2--2--2--7----7--7-----7--7--7--7--------------------------| 
C#|----2-----2-----2--2--2--6----6--6-----6--6--6--6--------------------------| 

D#|---------------------------------------------------------------------------| 
A#|---------------------------------------------------------------------------| 
F#|---------------------------------------------------------------------------| 
C#|----7-----7-----7--7--7--7----7--7-----7--6--6-----------------------------| 
G#|----7-----7-----7--7--7--7----7--7-----7--6--6-----------------------------| 
C#|----7-----7-----7--7--7--7----7--7-----7--6--6-----------------------------| 


Lead 
D#|---------------------------------------------------------------------------| 
A#|----------9-----------9-----------9----9--10--9----------------------------| 
F#|-------11---11-----11---11-----11---11-------------------------------------| 
C#|---------------------------------------------------------------------------| 
G#|---------------------------------------------------------------------------| 
C#|---------------------------------------------------------------------------| 

D#|---------------------------------------------------------------------------| 
A#|----------9-----------9-----------9----9--7-----7--------------------------| 
F#|-------11---11-----11---11-----11---11-------9-----------------------------| 
C#|---------------------------------------------------------------------------| 
G#|---------------------------------------------------------------------------| 
C#|---------------------------------------------------------------------------| 

D#|-------------------------7-------------------------------------------------| 
A#|----5----------------------------------------------------------------------| 
F#|---------------------------------------------------------------------------| 
C#|---------------------------------------------------------------------------| 
G#|---------------------------------------------------------------------------| 
C#|---------------------------------------------------------------------------| 

D#|----9--9--9--9--9--9--9--9--9--9--9--9--9--9--9--9-------------------------| 
A#|----9--9--9--9--9--9--9--9--9--9--9--9--9--9--9--9-------------------------| 
F#|---------------------------------------------------------------------------| 
C#|---------------------------------------------------------------------------| 
G#|---------------------------------------------------------------------------| 
C#|---------------------------------------------------------------------------| 




Outro: 2:53 
Rhythm 
D#|---------------------------------------------------------------------------| 
A#|---------------------------------------------------------------------------| 
F#|-----------4--4--7--7------------------------------------------------------|  x4 
C#|----2------4--4--7--7-----------7--7------7--7--7--------------------------| 
G#|----2------2--2--5--5-----------7--7------7--7--7--------------------------| 
C#|----2---------------------------7--7------7--7--7--------------------------| 

   Lead 
D#|---9-----9-----9-----9-----9-----9-----10-----10---------------------------|  x4 
A#|------9-----9-----9-----9-----9-----9------9------9------------------------| 
F#|---------------------------------------------------------------------------| 
C#|---------------------------------------------------------------------------| 
G#|---------------------------------------------------------------------------| 
C#|---------------------------------------------------------------------------| 




************************************ 

| /   slide up 
| \   slide down 
| *   palm mute 
| h   hammer-on 
| p   pull-off 
| ~   vibrato 
| +   harmonic 
| x   Mute note 
| b   Bend 
| pb  Pre-bend 
| br  Bend release 
| pbr Pre-bend release 
| brb Bend release bend 
		  

See also:

tabs Ira! - Envelheço Na Cidade(Solo - Acustivo Mtv) tabs Deep Purple - No No No tabs Deep Purple - Black Night tabs Deep Purple - Smoke on the water(ver. 2) tabs Deep Purple - Since Youve Been Gone tabs Albert Hammond Jr - In My Room
e-chords

Other versions:

tabs State Champs - Eyes Closed
auto scroll beats size up size down change color hide chords drawings
tab show chords e-chords YouTube Clip e-chords hide all tabs e-chords go to top tab

share