State Champs

Easy Enough (Acoustic)

State Champs

tabs

by  DEIVCAVALCANTI

save to print version add songbook text version e-mail correct tuner
chordsukulelecavacokeyboardtabbassdrumsharmonicaflute Guitar Pro
close

there isn't a video lesson for this song

chords

Easy Enough (Acoustic)

	  		
e|-------------------------------------| 
B|-------------------------------------| 
G|----0-------0-------0----------------|   X2 
D|--0--0-0--0--0-0--0--0-0----0---0----| 
A|-------------------------------------| 
E|-5-5--5--7-7--7--4-4--4////9-9-7-7---| 
This riff continues playing until 0:23 (about 4 times total for the lead guitar) 

"But when the trust falls, missed phone calls" 
e|-000--00--000--00--000--00--00-00-0-------------------------------------| 
B|-000--00--000--00--000--00--00-00-0-------------------------------------| 
G|-000--00--000--00--000--00--00-00-0-------------------------------------| 
D|-555--55--777--77--444--44//99\77-7--X2---------------------------------| 
A|-555--55--777--77--444--44//99\77-7-------------------------------------| 
E|-555--55--777--77--444--44//99\77-7-------------------------------------| 
   DDU  DD  DDU  DD  DDU  DD  UD UD D  

"Now I don't think I'll ever feel" 
e|-------------------------------------7---7---7---7---7---7---7---7---------| 
B|------------------------------------7-7-7-7-7-7-7-7-7-7-7-7-7-7-7-7--------| 
G|----------------------------(LEAD)-5---5---5---5---7---7---7---7-----------| 
D|-5-----7-------------------------------------------------------------------| 
A|-5-x16-7-x16-----X2 total--------------------------------------------------| 
E|-5-----7-------------------------------------------------------------------| 
   P     P  

"We're suspended in time from the likes of you" 
e|-00000000-00000000-00000000-00000000---------------------------------------| 
B|-00000000-00000000-00000000-00000000---------------------------------------| 
G|-00000000-00000000-00000000-00000000---------------------------------------| 
D|-00000000-77777777-55555555-99997777-X2------------------------------------| 
A|-00000000-77777777-55555555-99997777---------------------------------------| 
E|-00000000-77777777-55555555-99997777---------------------------------------| 
   DDUUUDDD DDUUUDDD DDUUUDDD DUUDDUUD 

"It's hard enough for me to say this" 
e|---0--0--0--0------------------------------------------------------------------| 
B|V1-0--0--0--0------V2-------9--------------------------------------------------| 
G|---0--0--0--0----------9-97---5-45/7-------------------------------------------| 
D|---9--7--5--7------------------------------------------------------------------| 
A|---9--7--5--7------------------------------------------------------------------| 
E|---9--7--5--7----------9-97-7-5-55/7-------------------------------------------| 
 
		  

Full key step upFull key step up
Half key step upHalf key step up
Half key step downHalf key step down
Full key step downFull key step down
hide glossary

See also:

tabs Ira! - Envelheço Na Cidade(Solo - Acustivo Mtv) tabs Deep Purple - No No No tabs Deep Purple - Black Night tabs Deep Purple - Smoke on the water(ver. 2) tabs Deep Purple - Since Youve Been Gone tabs Albert Hammond Jr - In My Room
e-chords

Other versions:

tabs State Champs - Easy Enough (Acoustic)
auto scroll beats size up size down change color hide chords drawings
tab show chords e-chords YouTube Clip e-chords hide all tabs e-chords go to top tab

share