State Champs

Cut Through The Static

State Champs

tabs

by  IRONPOWER4EVER

save to print version add songbook text version e-mail correct tuner
chordsukulelecavacokeyboardtabbassdrumsharmonicaflute Guitar Pro
close

there isn't a video lesson for this song

chords

Cut Through The Static

	  		
Intro 

Guitar 1 
d#|----------------|-----------------------------1.-|---------------2.-|------------------3.-|-------4.-|| 
A#|----------------|--------------------------------|------------------|---------------------|----------|| 
F#|----------------|--------------------------------|------------------|---------------------|----------|| 
C#|-2---2----------|----------6---6-7~--6~-6h7p6----|------------------|---6---6-7~----6~----|----------|| 
G#|---2---2~---2-2-|-2~---2/4---4----------------7~-|-0~--0-2~--4~--6~-|-2---7-------------7-|-0~-------|| 
C#|----------------|--------------------------------|------------------|---------------------|----------|| 

Guitar 2 
d#|----------------------------------------------------------------------------------------------------------| 
A#|----------------------------------------------------------------------------------------------------------| 
F#|-------4~-4-4-4-6-6-6-2~-2-2-2-------4~-4-4-2~---x-2~-x-2~--------4~-4-4-4-6-6-6-2~-2-2-2-------4~-4-4-2~-| 
C#|-2-2-2-4~-4-4-4-6-6-6-2~-2-2-2-2-2-2-4~-4-4-2~---x-2~-x-2~--2-2-2-4~-4-4-4-6-6-6-2~-2-2-2-2-2-2-4~-4-4-2~-| 
G#|-2-2-2-2~-2-2-2-4-4-4-0~-0-0-0-2-2-2-2~-2-2-0~---x-0~-x-0~--2-2-2-2~-2-2-2-4-4-4-0~-0-0-0-2-2-2-2~-2-2-0~-| 
C#|-2-2-2-------------------------2-2-2------------------------2-2-2-------------------------2-2-2-----------| 

verse 1 

Guitar 1 
d#|---------------------------------------------------------------------------------------------------------| 
A#|---------------------------------------------------------------------------------------------------------| 
F#|-9-9-9-9---------------------------------------------9-9-9-9---------------------------------------------| 
C#|-----------------------------------------------------9-9-9-9---------------------------------------------| 
G#|-7-7-7-7-x-x-x----------------------------4-x2---2-2-7-7-7-7-x-x-x----------------------------4-x2---2-2-| 
C#|---------x-x-x-7-x9-9-9-9-x-x-x9-x7-7-x-x--------------------x-x-x-7-x9-9-9-9-x-x-x9-x7-7-x-x------------| 

d#|-------------------------------------------------| 
A#|-------------------------------------------------| 
F#|-8/9------4-----8/9------4-----14----------------| 
C#|------x15----x8------x15----x8----x8-------------| 
G#|-6/7------2-----6/7------2-----12----------------| 
C#|-------------------------------------------------| 
                                   ^ lo-fi, part immediately before Chorus 
Guitar 2 (comes in at 00:30) 
d#|----------------------------------------------------(0~)----| 
A#|----------------------------------------------------(0~)----| 
F#|-9-9-9----------------------------------------------(0~)----| 
C#|-9-9-9---7--9-9---6--7-7----11--9-9--x-9~--(pause)--(0~)----| 
G#|-7-7-7---7--9-9---7--7-7----11--9-9--x-9~-----------(0~)----| 
C#|---------7--9-9---6--7-7----11--9-9--x-9~-----------(0~)----| 

Chorus 

Guitar 1 
d#|----------------|-----------------------------1.-|---------------2.-|------------------3.-|-------4.-|| 
A#|----------------|--------------------------------|------------------|---------------------|----------|| 
F#|----------------|--------------------------------|------------------|---------------------|----------|| 
C#|-2---2----------|----------6---6-7~--6~-6h7p6----|------------------|---6---6-7~----6~----|----------|| 
G#|---2---2~---2-2-|-2~---2/4---4----------------7~-|-0~--0-2~--4~--6~-|-2---7-------------7-|-0~-------|| 
C#|----------------|--------------------------------|------------------|---------------------|----------|| 

Guitar 2 
d#|----------------------------------------------------------------------------------------------------------| 
A#|----------------------------------------------------------------------------------------------------------| 
F#|-------4~-4-4-4-6-6-6-2~-2-2-2-------4~-4-4-2~---x-2~-x-2~--------4~-4-4-4-6-6-6-2~-2-2-2-------4~-4-4-2~-| 
C#|-2-2-2-4~-4-4-4-6-6-6-2~-2-2-2-2-2-2-4~-4-4-2~---x-2~-x-2~--2-2-2-4~-4-4-4-6-6-6-2~-2-2-2-2-2-2-4~-4-4-2~-| 
G#|-2-2-2-2~-2-2-2-4-4-4-0~-0-0-0-2-2-2-2~-2-2-0~---x-0~-x-0~--2-2-2-2~-2-2-2-4-4-4-0~-0-0-0-2-2-2-2~-2-2-0~-| 
C#|-2-2-2-------------------------2-2-2------------------------2-2-2-------------------------2-2-2-----------| 

Guitar 3 
d#|----------------|-----------------------------1.-|---------------2.-|------------------3.-|-------4.-|| 
A#|-5---5-7~-------|-7~---9-9-9-10~-----------------|------------------|-7~---9-9-9-10~------|----------|| 
F#|---4------------|--------------------------------|-6~--6-8~--6~--8~-|---------------------|-6~-------|| 
C#|----------------|--------------------------------|------------------|---------------------|-7~-------|| 
G#|----------------|--------------------------------|------------------|---------------------|----------|| 
C#|----------------|--------------------------------|------------------|---------------------|----------|| 

verse 2 

Guitar 1 
d#|-------------------------------------------------| 
A#|-------------------------------------------------| 
F#|-------------------------------------------------| 
C#|-2~----------------------------------------------| 
G#|-2~---------(pause)------------------------------| 
C#|-2~----------------------------------------------| 

Guitar 2 
d#|--------0~---------------------------------------| 
A#|--------0~---------------------------------------| 
F#|-4~-----4~---------------------------------------| 
C#|-2~-----------(pause)----------------------------| 
G#|-------------------------------------------------| 
C#|-------------------------------------------------| 

verse 2 

Guitar 1 (comes in at 1:15) 
d#|--------------------------2x-|-------------------------------------------|----------------------------| 
A#|-----------------------------|-------------------------------------------|----------------------------| 
F#|-8/9-----4-----8/9-----4-----|-14-14-14-14--14-14-14--14-14-14-14-14-----|-8~-9~-11~----11-11\9-------| 
C#|------x7----x8------x7----x8-|-------------------------------------------|----------------------------| 
G#|-6/7-----2-----6/7-----2-----|-12-12-12-12--12-12-12--12-12-12-12-12-----|-6~-7~-9~-----9--9-\7-------| 
C#|-----------------------------|-------------------------------------------|----------------------------| 
                                  ^ lo-fi, part immediately before Chorus ^ 
Guitar 2 (comes in at 1:15) 
d#|-------------------------------------------------------2x-|----------------------------------| 
A#|----------------------------------------------------------|----------------------------------| 
F#|----------------------------------------------------------|---------------4~--------8-8\6----| 
C#|-2-2-2-2-2-2-2-7~-9-9~-9-9-9-6~-7-7~-7-7-7-11~-9-9~-9-9-9-|---------6~-2~-4~---xxxx----------| 
G#|-2-2-2-2-2-2-2-7~-9-9~-9-9-9-7~-7-7~-7-7-7-11~-9-9~-9-9-9-|-(pause)-7~-2~-2~---xxxx-6-6\4----| 
C#|-2-2-2-2-2-2-2-7~-9-9~-9-9-9-6~-7-7~-7-7-7-11~-9-9~-9-9-9-|---------6~-2~------xxxx----------| 

Chorus 2 
  
Guitar 1 
d#|----------------|-----------------------------1.-|---------------2.-|------------------3.-|-------4.-|| 
A#|----------------|--------------------------------|------------------|---------------------|----------|| 
F#|----------------|--------------------------------|------------------|---------------------|----------|| 
C#|-2---2----------|----------6---6-7~--6~-6h7p6----|------------------|---6---6-7~----6~----|----------|| 
G#|---2---2~---2-2-|-2~---2/4---4----------------7~-|-0~--0-2~--4~--6~-|-2---7-------------7-|-0~-------|| 
C#|----------------|--------------------------------|------------------|---------------------|----------|| 

Guitar 2 
d#|----------------------------------------------------------------------------------------------------------| 
A#|----------------------------------------------------------------------------------------------------------| 
F#|-------4~-4-4-4-6-6-6-2~-2-2-2-------4~-4-4-2~--x2-x2~------4~-4-4-4-6-6-6-2~-2-2-2-------4~-4-4-2~-------| 
C#|-2-2-2-4~-4-4-4-6-6-6-2~-2-2-2-2-2-2-4~-4-4-2~--x2-x2-2-2-2-4~-4-4-4-6-6-6-2~-2-2-2-2-2-2-4~-4-4-2~-2-----| 
G#|-2-2-2-2~-2-2-2-4-4-4-0~-0-0-0-2-2-2-2~-2-2-0~--x0-x0-2-2-2-2~-2-2-2-4-4-4-0~-0-0-0-2-2-2-2~-2-2-0~-0--x14| 
C#|-2-2-2-------------------------2-2-2------------------2-2-2-------------------------2-2-2-----------------| 
                                                                                                      * 
Guitar 3 
d#|----------------|-----------------------------1.-|---------------2.-|------------------3.-|-------4.-|| 
A#|-5---5-7~-------|-7~---9-9-9-10~-----------------|------------------|-7~---9-9-9-10~------|----------|| 
F#|---4------------|--------------------------------|-6~--6-8~--6~--8~-|---------------------|-6~-------|| 
C#|----------------|--------------------------------|------------------|---------------------|-7~-------|| 
G#|----------------|--------------------------------|------------------|---------------------|----------|| 
C#|----------------|--------------------------------|------------------|---------------------|----------|| 

Bridge 

Guitar 1 
d#|-----------------------------------------------------------------------------------------------------| 
A#|-----------------------------------------------------------------------------------------------------| 
F#|-6-6-6-6---6-6-6-6---2-2-2-2----2~------------------6-6-6-6---6-6-6-6---9-9-9-9----9~--9-9-9-9----9~-| 
C#|-6-6-6-6---6-6-6-6---2-2-2-2--x-2~--4-4-4-4--x-4~---6-6-6-6---6-6-6-6---9-9-9-9--x-9~--9-9-9-9--x-9~-| 
G#|-4-4-4-4---4-4-4-4---0-0-0-0--x-0~--4-4-4-4--x-4~---4-4-4-4---4-4-4-4---7-7-7-7--x-7~--7-7-7-7--x-7~-| 
C#|------------------------------------4-4-4-4--x-4~----------------------------------------------------| 

d#|----------------------------------------------------------------------------------------------| 
A#|----------------------------------------------------------------------------------------------| 
F#|-6-6-6-6-------6-6-6-6------2-2-2-2-----------------6-6-6-6-x-6-6-6-6-x-6-x-6-6-2~---4~-------| 
C#|-6-6-6-6-------6-6-6-6------2-2-2-2------4-4-4-4----6-6-6-6-x-6-6-6-6-x-6-x-6-6-2~---4~-------| 
G#|-4-4-4-4-------4-4-4-4------0-0-0-0------4-4-4-4----4-4-4-4-x-4-4-4-4-x-4-x-4-4-0~---2~-------| 
C#|-----------------------------------------4-4-4-4----------------------------------------------| 

Guitar 2 
d#|-4-4-4-4---4-4-4-4----------------------------------4-4-4-4---4-4-4-4--------------------------------| 
A#|-5-5-5-5---5-5-5-5---2-2-2-2----2~------------------5-5-5-5---5-5-5-5---9-9-9-9----9~--9-9-9-9----9~-| 
F#|-6-6-6-6---6-6-6-6---2-2-2-2----2~--6-6-6-6----6~---6-6-6-6---6-6-6-6---9-9-9-9----9~--9-9-9-9----9~-| 
C#|-6-6-6-6---6-6-6-6---2-2-2-2--2-2~--4-4-4-4----4~---6-6-6-6---6-6-6-6---9-9-9-9--9-9~--9-9-9-9--9-9~-| 
G#|-4-4-4-4---4-4-4-4---0-0-0-0--0-0~--4-4-4-4--4-4~---4-4-4-4---4-4-4-4---7-7-7-7--7-7~--7-7-7-7--7-7~-| 
C#|------------------------------------4-4-4-4--4-4~----------------------------------------------------| 
                                 *              *                                   *              * 
d#|--------------------------------------------------------------------------------| 
A#|--------------------------------------------------------------------------------| 
F#|---------6-6-6-----------6-6-----------2-2-2---------------9~--11~--------------| 
C#|-----------------------x-------------x-2-2-2----x-4-4---------------------------| 
G#|---------4-4-4---------x-4-4---------x-0-0-0----x-4-4------7~--9~---------------| 
C#|-----------------------x-------------x----------x-4-4------------------2/14~\2--| 

Final Chorus 

Guitar 1 
d#|------------------------------------------------------------------------| 
A#|------------------------------------------------------------------------| 
F#|-----------------------------------------------2-1----------------------| 
C#|-2---2----------6---6-7~--6-4-2-2---2--------------4--------------------| 
G#|---2---2~-2-2-2---4---------------2---2~-2-2-4-------2-4--(pause)-------| 
C#|-------------------------------------------------------------------14\--| 

d#|----------------|------------------1.-|-------2.-|| 
A#|----------------|---------------------|----------|| 
F#|----------------|---------------------|----------|| 
C#|-2---2----------|---6---6-7~----6~----|----------|| 
G#|---2---2~---2-2-|-2---7-------------7-|-0~-------|| 
C#|----------------|---------------------|----------|| 

d#|-12--12---------------------17~--16~--12-12--12-------------|-17~--16~--17~--16~--|-17~--------------2.-|| 
A#|---12--12~-12-12-12-14---------------------12--12~-12-12-12-|---------------------|---------------------|| 
F#|----------------------13-13-14~--13~------------------------|-14~--13~--14~--13~--|-14~---16~--18~--20~-|| 
C#|------------------------------------------------------------|---------------------|---------------------|| 
G#|------------------------------------------------------------|---------------------|-------14~--16~--18~-|| 
C#|------------------------------------------------------------|------------------1.-|---------------------|| 

Guitar 2 (comes in at 2:20) 
d#|-(0~)--------------------------------------------------|-----------------------------------------------2x-| 
A#|-(0~)--------------------------------------------------|--------------------------------------------------| 
F#|-(0~)-------4~-4-4-4-6-6-6-2~-2-2-2-------4~-4-4-2-----|-------4~-4-4-4-6-6-6-7~-7-7-7-------4~-4-4-2-----| 
C#|-(0~)-2-2-2-4~-4-4-4-6-6-6-2~-2-2-2-2-2-2-4~-4-4-2--x8-|-2-2-2-4~-4-4-4-6-6-6-7~-7-7-7-2-2-2-4~-4-4-2--x8-| 
G#|-(0~)-2-2-2-2~-2-2-2-4-4-4-0~-0-0-0-2-2-2-2~-2-2-0-----|-2-2-2-2~-2-2-2-4-4-4-5~-5-5-5-2-2-2-2~-2-2-0-----| 
C#|-(0~)-2-2-2-------------------------2-2-2--------------|-2-2-2-------------------------2-2-2--------------| 

Outro 

Guitar 1 
d#|-12--12-------------16-16-16-17~---12--12------------------------------| 
A#|---12--------------------------------12--------------------------------| 
F#|-------11~-11-11-11-13-13-13-14~---------11~----/6~-----16~--18~--20~--| 
C#|-----------------------------------------------------------------------| 
G#|--------------------------------------------------------14~--16~--18~--| 
C#|-----------------------------------------------------------------------| 

Guitar 2 
d#|----------------------------------------------------| 
A#|----------------------------------------------------| 
F#|-------4~-4-4-4-6-6-6-2~-2-2-2-------4~-4-4-2~-2----| 
C#|-2-2-2-4~-4-4-4-6-6-6-2~-2-2-2-2-2-2-4~-4-4-2~-2-x6-| 
G#|-2-2-2-2~-2-2-2-4-4-4-0~-0-0-0-2-2-2-2~-2-2-0~-0----| 
C#|-2-2-2-------------------------2-2-2----------------| 
_____________________________________________________________________________________________________________ 
* - palm mute 
/ or \ - slide 
h - hammer on 
p - pull off 
~ - let note ring 
x - mute note 
		  

See also:

tabs Ira! - Envelheço Na Cidade(Solo - Acustivo Mtv) tabs Deep Purple - No No No tabs Deep Purple - Black Night tabs Deep Purple - Smoke on the water(ver. 2) tabs Deep Purple - Since Youve Been Gone tabs Albert Hammond Jr - In My Room
e-chords

Other versions:

tabs State Champs - Cut Through The Static
auto scroll beats size up size down change color hide chords drawings
tab show chords e-chords YouTube Clip e-chords hide all tabs e-chords go to top tab

share