Starset

Everglow

Starset

tabs

by  TARIKIKE

save to print version add songbook text version e-mail correct tuner
chordsukulelecavacokeyboardtabbassdrumsharmonicaflute Guitar Pro
close

there isn't a video lesson for this song

chords

Everglow

	  		
Only guitar part in the song is the bridge, wich is the only heavy distorted part of the song 
Bridge 
c |---------------------------------|---------------------------------| 
g |---------------------------------|---------------------------------| 
Eb|---------------------------------|---------------------------------| 
Bb|-0-0-0-0-0-0-0-0-0-0-0-0-8-8-8-8-|-7-7-7-7-7-7-7-7-7-7-7-7-3-3-3-3-| 
f |-0-0-0-0-0-0-0-0-0-0-0-0-8-8-8-8-|-7-7-7-7-7-7-7-7-7-7-7-7-3-3-3-3-| 
Bb|-0-0-0-0-0-0-0-0-0-0-0-0-8-8-8-8-|-7-7-7-7-7-7-7-7-7-7-7-7-3-3-3-3-| 

c |-------------------------------------|-----------------------------------------| 
g |-------------------------------------|-----------------------------------------| 
Eb|-------------------------------------|-----------------------------------------| 
Bb|-2-2-2-2-2-2-2-2-2-2-2-2-10-10-10-10-|-12-12-12-12-12-12-12-12-7-7-7-7-7-7-7-7-| 
f |-2-2-2-2-2-2-2-2-2-2-2-2-10-10-10-10-|-12-12-12-12-12-12-12-12-7-7-7-7-7-7-7-7-| 
Bb|-2-2-2-2-2-2-2-2-2-2-2-2-10-10-10-10-|-12-12-12-12-12-12-12-12-7-7-7-7-7-7-7-7-| 

c |---------------------------------| 
g |---------------------------------| 
Eb|---------------------------------| 
Bb|-8-8-8-8-8-8-8-8-7-7-7-7-3-3-3-3-| 
f |-8-8-8-8-8-8-8-8-7-7-7-7-3-3-3-3-| 
Bb|-8-8-8-8-8-8-8-8-7-7-7-7-3-3-3-3-| 

REPEAT 2x 

end the last repeat with 
c |-------------------------------------| 
g |-------------------------------------| 
Eb|-------------------------------------| 
Bb|-8-8-8-8-8-8-8-8-7-7-7-7-12-12-12-12-| 
f |-8-8-8-8-8-8-8-8-7-7-7-7-12-12-12-12-| 
Bb|-8-8-8-8-8-8-8-8-7-7-7-7-12-12-12-12-| 

instead of 
c |---------------------------------| 
g |---------------------------------| 
Eb|---------------------------------| 
Bb|-8-8-8-8-8-8-8-8-7-7-7-7-3-3-3-3-| 
f |-8-8-8-8-8-8-8-8-7-7-7-7-3-3-3-3-| 
Bb|-8-8-8-8-8-8-8-8-7-7-7-7-3-3-3-3-| 

************************************ 
		  

See also:

tabs Deep Purple - Burn tabs Deep Purple - No No No tabs Deep Purple - Smoke on the water(ver. 2) tabs Deep Purple - Time To Kill tabs Deep Purple - Smoke on The Water (ver.3) tabs Deep Purple - Fireball
e-chords

Other versions:

tabs Starset - Everglow
auto scroll beats size up size down change color hide chords drawings
tab show chords e-chords YouTube Clip e-chords hide all tabs e-chords go to top tab

share