Stargazer

All That Is

Stargazer

tabs

by  TERCMORAES

save to print version add songbook text version e-mail correct tuner
chordsukulelecavacokeyboardtabbassdrumsharmonicaflute Guitar Pro
close

there isn't a video lesson for this song

chords

All That Is

	  		
Tuning: D# G# C# F# A# D# 



Gtr I (clean channel with Chorus) 
  E E E E E E E   E  E  E  E E E  E  E E  E E E  E E E E E E E E 
|------------------------------------------------------------------| 
|------------------------------------------------------------------| 
|-0---0-----0------------------------------------------------------| 
|-5----------------------------------------------2-------2---------| 
|-7-7---7-7---7--10-10-10--9-9-9--9h10p9--5-5-5--3---3-----3---3---| 
|-------7---------7--7--7--5-5-5--5-------7-7-7--5-5---5-----5-----| 


  E E E E  E E E E E  E E E  E E E 
|-------------------------------------| 
|-------------------------------------| 
|-----------------------0------0------| 
|-------------------------0------0----| 
|-2-2-0-5--5-5-5-5--------------------| 
|-3-3-2-5--5-5-5-5-5--8-----10--------| 


|------------------------------------------------------------------| 
|------------------------------------------------------------------| 
|-0---0-----0------------------------------------------------------| 
|-5----------------------------------------------2-------2---------| 
|-7-7---7-7---7--10-10-10--9-9-9--9h10p9--5-5-5--3---3-----3---3---| 
|-------7---------7--7--7--5-5-5--5-------7-7-7--5-5---5-----5-----| 


  E E E E  E E E E E  E E E  E E E 
|-------------------------------------| 
|-------------------------------------| 
|-----------------------0------0------| 
|-------------------------0------0----| 
|-2-2-0-5--5-5-5-5--------------------| 
|-3-3-2-5--5-5-5-5-5--8-----10--------| 




Tablature Legend 
---------------- 
 h   - hammer-on 
 p   - pull-off 
 b   - bend 
 pb  - pre-bend 
 r   - bend release (if no number after the r, then release immediately) 
 /\  - slide into or out of (from/to "nowhere") 
 s   - legato slide 
 S   - shift slide 
  - natural harmonic 
n  - artificial harmonic 
n(n) - tapped harmonic 
 ~   - vibrato 
 tr  - trill 
 T   - tap 
 TP  - trem. picking 
 PM  - palm muting 
\n/  - tremolo bar dip; n = amount to dip 
 \n  - tremolo bar down 
 n/  - tremolo bar up 
/n\  - tremolo bar inverted dip 
 =   - hold bend; also acts as connecting device for hammers/pulls 
 <>  - volume swell (louder/softer) 
 x   - on rhythm slash represents muted slash 
 o   - on rhythm slash represents single note slash 

Misc Legend 
----------- 
 |  - bar 
||  - double bar 
||o - repeat start 
o|| - repeat end 
*|  - double bar (ending) 
 :  - bar (freetime) 
 $  - Segno 
 &  - Coda 



 
		  

Full key step upFull key step up
Half key step upHalf key step up
Half key step downHalf key step down
Full key step downFull key step down
auto scroll beats size up size down change color hide chords drawings
tab show chords e-chords YouTube Clip e-chords hide all tabs e-chords go to top tab

share