Spoken

Shadow Over Me

Spoken

tabs

by  LUCICAMARGO

save to print version add songbook text version e-mail correct tuner
chordsukulelecavacokeyboardtabbassdrumsharmonicaflute Guitar Pro
close

there isn't a video lesson for this song

chords

Shadow Over Me

	  		
Intro 

D#|-----------------------------------------------------------------| 
A#|-----------------------------------------------------------------| 
F#|-----------------------------------------------------------------| 
C#|-4-2-4-2-4-2-4-2-4-5-4-2-0-2-2-2-4-2-4-2-4-2-4-2-4-5-4-2-5-5-5-5-| 
G#|-4-2-4-2-4-2-4-2-4-5-4-2-0-2-2-2-4-2-4-2-4-2-4-2-4-5-4-2-5-5-5-5-| 
C#|-4-2-4-2-4-2-4-2-4-5-4-2-0-2-2-2-4-2-4-2-4-2-4-2-4-5-4-2-5-5-5-5-| 

D#|-----------------------------------------------------------------| 
A#|-----------------------------------------------------------------| 
F#|-----------------------------------------------------------------| 
C#|-4-2-4-2-4-2-4-2-4-5-4-2-0-2-2-2-4-2-4-2-4-2-4-2-----------------| 
G#|-4-2-4-2-4-2-4-2-4-5-4-2-0-2-2-2-4-2-4-2-4-2-4-2-----4-5-----2-4-| 
C#|-4-2-4-2-4-2-4-2-4-5-4-2-0-2-2-2-4-2-4-2-4-2-4-2-0-0-----2-2-----| 

verse 1 

D#|---------------------------------------------------------------------------| 
A#|---------------------------------------------------------------------------| 
F#|---------------------------------------------------------------------------| 
C#|---------------------------------------------------------------------------| 
G#|-4-------------------------------------------------------------------------| 
C#|-4-------------------------------------------------------------------------| 

Pre-Chorus 

D#|---------------------------------| 
A#|---------------------------------| 
F#|---------------------------------| 
C#|---------------------------------| x2 
G#|---------------------------------| 
C#|-7p5-4-7p5-4-7p5-4-7p5-4-7-5-4---| 

Chorus 

D#|--------------------------------| 
A#|--------------------------------| 
F#|--------------------------------| 
C#|--------------------------------| 
G#|---------------4(x16)-----------| 
C#|-4(x16)-0(x16)--------2(x16)----| 

verse 2 

Second Pre-Chorus 

D#|------------------------------------------------------------------| 
A#|------------------------------------------------------------------| 
F#|------------------------------------------------------------------| 
C#|------------------------------------------------------------------| 
G#|------------------------------------------------------------------| 
C#|-7p5-4-7p5-4-7p5-4-7p5-4-7-5-4----7p5-4-7p5-4-7p5-4-7p5-4---------| 

Chorus 

Bridge Part 1 

D#|-----------------------------------------------------------------| 
A#|-----------------------------------------------------------------| 
F#|-----------------------------------------------------------------| 
C#|-4-2-4-2-4-2-4-2-4-5-4-2-0-2-2-2-4-2-4-2-4-2-4-2-4-5-4-2-5-5-5-5-| 
G#|-4-2-4-2-4-2-4-2-4-5-4-2-0-2-2-2-4-2-4-2-4-2-4-2-4-5-4-2-5-5-5-5-| 
C#|-4-2-4-2-4-2-4-2-4-5-4-2-0-2-2-2-4-2-4-2-4-2-4-2-4-5-4-2-5-5-5-5-| 

D#|-----------------------------------------------------------------| 
A#|-----------------------------------------------------------------| 
F#|-----------------------------------------------------------------| 
C#|---------4-2-4-2-4-5-4-2-0-2-2-2-4-2-4-7-4-2-4-2-----------------| 
G#|---------4-2-4-2-4-5-4-2-0-2-2-2-4-2-4-7-4-2-4-2-4-4-4-4-4-4-4-4-| 
C#|---------4-2-4-2-4-5-4-2-0-2-2-2-4-2-4-7-4-2-4-2-----------------| 

D#|-----------------------------------------------------------------| 
A#|-----------------------------------------------------------------| 
F#|-----------------------------------------------------------------| 
C#|-4-2-4-2-4-2-4-2-4-5-4-2-0-2-2-2-4-2-4-2-4-2-4-2-4-5-4-2-5-5-5-5-| 
G#|-4-2-4-2-4-2-4-2-4-5-4-2-0-2-2-2-4-2-4-2-4-2-4-2-4-5-4-2-5-5-5-5-| 
C#|-4-2-4-2-4-2-4-2-4-5-4-2-0-2-2-2-4-2-4-2-4-2-4-2-4-5-4-2-5-5-5-5-| 

D#|-----------------------------------------------------------------| 
A#|-----------------------------------------------------------------| 
F#|-----------------------------------------------------------------| 
C#|-4-2-4-2-4-2-4-2-4-5-4-2-0-2-2-2-4-2-4-2-4-2-4-2-----------------| 
G#|-4-2-4-2-4-2-4-2-4-5-4-2-0-2-2-2-4-2-4-2-4-2-4-2-4-4-4-4-4-4-4-4-| 
C#|-4-2-4-2-4-2-4-2-4-5-4-2-0-2-2-2-4-2-4-2-4-2-4-2-----------------| 

Chorus 

Outro 

D#|-----------------------------------------------------------------| 
A#|-----------------------------------------------------------------| 
F#|-----------------------------------------------------------------| 
C#|-4-2-4-2-4-2-4-2-4-5-4-2-0-2-2-2-4-2-4-2-4-2-4-2-4-5-4-2-5-5-5-5-| 
G#|-4-2-4-2-4-2-4-2-4-5-4-2-0-2-2-2-4-2-4-2-4-2-4-2-4-5-4-2-5-5-5-5-| 
C#|-4-2-4-2-4-2-4-2-4-5-4-2-0-2-2-2-4-2-4-2-4-2-4-2-4-5-4-2-5-5-5-5-| 

D#|-----------------------------------------------------------------| 
A#|-----------------------------------------------------------------| 
F#|-----------------------------------------------------------------| 
C#|-4-2-4-2-4-2-4-2-4-5-4-2-0-2-2-2-4-2-4-2-4-2-4-2-0-------2-------| 
G#|-4-2-4-2-4-2-4-2-4-5-4-2-0-2-2-2-4-2-4-2-4-2-4-2-0-------2-------| 
C#|-4-2-4-2-4-2-4-2-4-5-4-2-0-2-2-2-4-2-4-2-4-2-4-2-0-------2-------| 

************************************ 
| p  Pull-off 
************************************ 
		  

See also:

tabs Deep Purple - Smoke On The Water (Intermediate Intro) tabs Deep Purple - Space Truckin tabs Deep Purple - Smoke On The Water (Easy Intro) tabs Ira! - Prisão das Ruas tabs Doa - Sexyest Girl tabs Deep Purple - Ted The Mechanic
e-chords

Other versions:

tabs Spoken - Shadow Over Me
auto scroll beats size up size down change color hide chords drawings
tab show chords e-chords YouTube Clip e-chords hide all tabs e-chords go to top tab

share