Spitz

Fake Fur

Spitz

tabs nolevel nolevel

by  CARLLUZ

save to print version add songbook text version e-mail correct tuner
chordsukulelecavacokeyboardtabbassdrumsharmonicaflute Guitar Pro
close

there isn't a video lesson for this song

chords

Fake Fur

	  		Fake Fur by Spitz 
from the album "Fake Fur" 
transcribed by Robert Goodwin 


Two ways to do the Intro/Verse 
E-----3-------3-----------3---2-3-| 
B-------3-------5-----3-----3-3---| 
G---4-------4-----------0-----2---| 
D-5-------2---------2---------0---| 
A-----------------3---------------| 
E---------------------------------| 

       OR 

E-----3-------3-0---------3---2-3-| 
B---0---3---0---------3-----3-3---| 
G-0---------------------0-----2---| 
D---------2---------2---------0---| 
A-----------------3---------------| 
E---------------------------------| 


Verse (using the 2nd method)  After playing the intro once... 
E-----3-------3-0---------------------0-------2-----------| 
B---0---3---0---------3-------0---------0-------3-----1---| 
G-0---------------------0-------2---0-------2-----------0-| 
D---------2---------2-------1-----2-------0---------2-----| 
A-----------------3-------2-----------------------3-------| 
E---------------------------------------------------------| 

E-----2-------0-------2---------------2---| 
B-------3-------0-------3-----1---------3-| 
G---2-------0-------4-----------0---2-----| 
D-0-------2-------4---------2-----0-------| 
A-------------------------3---------------| 
E-----------------------------------------| 


Chorus ("Wakachiau mono wa nanimo nai kedo...") 
I'ts not exactly what is being played in the actual song but I 
prefer doing it this way for soloing 
  barre 7th fret 
E-----7----------------7-----------------7-------------3-3----3--2--| 
B---------10---8-----------10---7-------------10--8----3----3-------| 
G-9----------------7----------------9---------------9--4------------| 
D---9---9----9---9---9---9----9---9---10---10----------5------------| 
A------------------------------------------------------5------------| 
E------------------------------------------------------3------------| 

E-----7----------------7------------------------5-------5---------------5---| 
B---------10---8-----------10---7-------------------5-------8---8---7-------| 
G-9----------------7-----------------C--Am--7-----------------7---7---7---7-| 
D---9---9----9---9---9---9----9---9-(strum)---7---7---7---7-----------------| 
A---------------------------------------------------------------------------| 
E---------------------------------------------------------------------------| 


Interlude 
E----------------------------------------------------------------0-3---| 
B----0----1----3----1--0----0-0-1-3-5b-5b-3-1-0h1p0--------------------| 
G-0-----0----0----0-------2-------------------------2-0-3b---4-4-------| 
D----------------------------------------------------------------------| 
A----------------------------------------------------------------------| 
E----------------------------------------------------------------------| 

E-3-2-0------------------------------------------| 
B-------3-1-0------------------------------------| 
G-------------2-0-2-3v---4--4-4-2-0---0--2--3b---| 
D-----------------------------------4------------| 
A------------------------------------------------| 
E------------------------------------------------| 


Chorus2 ("Ima kara hako no soto e...") 

Strum chords in the following sequence: 

C C D D Em Em D D C C D D Em Em Bm Bm 
C C D D Em Em D D C C D D Em Em Bm Bm 
C C D D Em Em D D C C D D Em Em Bm Bm 
C C D D Em Em D D C C C C D D D D D D D D 
		  

Full key step upFull key step up
Half key step upHalf key step up
Half key step downHalf key step down
Full key step downFull key step down
hide glossary

See also:

tabs Yamazaki Masayoshi - One More Time, One More Chance tabs Spitz - Indigo Chiheisen tabs Hikaru Utada - Sanctuary Remix tabs Bamboo - Kailan tabs Mami Kawada - Joint tabs Akb48 - Aitakatta
e-chords

Other versions:

tabs Spitz - Fake Fur
auto scroll beats size up size down change color hide chords drawings
tab show chords e-chords YouTube Clip e-chords hide all tabs e-chords go to top tab

share with facebook