Spitz

Akane

Spitz

tabs nolevel nolevel

by  CARLLUZ

save to print version add songbook text version e-mail correct tuner
chordsukulelecavacokeyboardtabbassdrumsharmonicaflute Guitar Pro
close

there isn't a video lesson for this song

chords

Akane

Key:  Eb More
Akane Key A#A#
Akane Key BB
Akane Key CC
Akane Key C#C#(one step down)
Akane Key DD(half step down)
Akane Key EbEb(original key)
Akane Key EE(half step up)
Akane Key FF(one step up)
Akane Key F#F#
Akane Key GG
Akane Key G#G#
Akane Key AA
	  		


Verse ("kanashii hi ni wa atarashii uta") 
E---------------------------------------------------| 
B--------------------------------------------1------| 
G-----3----------3----------3-----3------3-----3----| 
D-0h1---0h1--0h1---0h1----1-----1------1------------| 
A-----------------------3-----3------3-----3-----3--| 
E---------------------------------------------------| 

E---------------------------------------------------| 
B--------------------------------------------1------| 
G-----3----------3----------3-----3------3-----3----| 
D-0h1---0h1--0h1---0h1----1-----1------1------------| 
A-----------------------3-----3------3-----3-----3--| 
E---------------------------------------------------| 


Chorus #1 ("hitostu tooku arukidasou ka") 
Barre 3rd fret 
E----------------------------------------------------------------| 
B-----4-------4------3---4p3-----------4-------4--------6--------| 
G---3---3---3------3---3-----3---3---3---3---3------3------3---3-| 
D-6-------5-----3--------------3---6-------5-----3----3------3---| 
A----------------------------------------------------------------| 
E----------------------------------------------------------------| 

Keep barring 3rd fret              Ebadd9 
E----------------------------------6----------------6----| 
B-----4-------4------3---4p3-----------6----------6------| 
G---3---3---3------3---3-----3-----------8------8--------| 
D-6-------5-----3--------------3-----------8-------------| 
A--------------------------------6-----------6-----------| 
E--------------------------------------------------------| 


Chorus #2 ("gomi ni miete mo suterarezu ni...") 

Play the following chords:  Cm7  Bb  Ab  Bb Ab Bb 
                            Cm7  Gm  Ab            Bb 


Interlude 
Another guitar is doing something a tad more complex but I didn't 
transcribe that, just this part which is the melody. 
E----------------------------------------------------------------| 
B---------------------------------1--3--4---4--3-1-1/4---4--3--1-| 
G-----------------------------3----------------------------------| 
D-----0--1-----0--1-0---1-3--------------------------------------| 
A-3--------3----------------1------------------------------------| 
E----------------------------------------------------------------| 
                               (first Cm7 of Chorus #1 begins again) 
E-----------------------------------| 
B-1/3---3-3/4---4-4/6---6-7--9--8---| 
G-----------------------------------| 
D-----------------------------------| 
A-----------------------------------| 
E-----------------------------------| 
		  

Full key step upFull key step up
Half key step upHalf key step up
Half key step downHalf key step down
Full key step downFull key step down
hide glossary

See also:

tabs The Gazette - Chizuru tabs Yamazaki Masayoshi - One More Time, One More Chance tabs YUI - Find Me tabs HB - Be Aware tabs HB - The Jeus Metal Explosion tabs InuYasha - Every Heart
e-chords

Other versions:

tabs Spitz - Akane
auto scroll beats size up size down change color hide chords drawings
tab show chords e-chords YouTube Clip e-chords hide all tabs e-chords go to top tab

share with facebook