Spitfire

Devil's Dance

Spitfire

tabs

by  VICTBORGES

save to print version add songbook text version e-mail correct tuner
chordsukulelecavacokeyboardtabbassdrumsharmonicaflute Guitar Pro
close

there isn't a video lesson for this song

chords

Devil's Dance

	  		

Intro 

Eb|------------------------------------x-x-x----------------------------------| 
Bb|------------------------------------x-x-x----------------------------------| 
Gb|------------------------------------x-x-x----------------------------------| 
db|--------3-----5-3-2-3-------3-------x-x-x-------3-----5-3-2-3-------3------| 
Ab|--5-3-5---5-3---------5-3-5---5-3-5-x-x-x-5-3-5---5-3---------5-3-5---5-3-5| 
Db|------------------------------------x-x-x----------------------------------| 

Fill In 

Eb|----------------------------------| 
Bb|----------------------------------| Repeat 
Gb|----------------------------------| 4x 
db|-------3------3-------------------| 
Ab|-------3------3-------------------| 
Db|--0-0--3--0-0-3--0-0-6-5-0-3-5----| 

Eb|----------------------------------| 
Bb|----------------------------------| 
Gb|----------------------------------| 
db|------3---5---6-7-----------------| 
Ab|------3---5---6-7-----------------| 
Db|--0-0-3-0-5-0-6-7-----------------| 

Verse 

Eb|---------------------------------------------------------------------------| 
Bb|---------------------------------------------------------------------------| 
Gb|--7-7-x-7--7-x-7--7-x-7--7-7-10-10-x--10--10-10-5-5-x-5--5-5---------------| 
db|--7-7-x-7--7-x-7--7-x-7--7-7-10-10-x--10--10-10-5-5-x-5--5-5---------------| 
Ab|--5-5-x-5--5-x-5--5-x-5--5-5-8--8--x--8---8--8--3-3-x-3--3-3---------------| 
Db|---------------------------------------------------------------------------| 

Eb|---------------------------------------------------------------------------| 
Bb|---------------------------------------------------------------------------| 
Gb|--7-7-x-7--7-x-7--7-x-7--7-7-10-10-x--10--10-10-5--------------------------| 
db|--7-7-x-7--7-x-7--7-x-7--7-7-10-10-x--10--10-10-5--------------------------| 
Ab|--5-5-x-5--5-x-5--5-x-5--5-5-8--8--x--8---8--8--3--------------------------| 
Db|---------------------------------------------------------------------------| 

Eb|---------------------------------------------------------------------------| 
Bb|---------------------------------------------------------------------------| 
Gb|--7-7-7-7--7-7-7--7-7-7--7-7-10-10-10-10--10-10-5-5-5-5--5-5---------------| 
db|--7-7-7-7--7-7-7--7-7-7--7-7-10-10-10-10--10-10-5-5-5-5--5-5---------------| 
Ab|--5-5-5-5--5-5-5--5-5-5--5-5-8--8--8--8---8--8--3-3-3-3--3-3---------------| 
Db|---------------------------------------------------------------------------| 

Eb|---------------------------------------------------------------------------| 
Bb|---------------------------------------------------------------------------| 
Gb|--7-7-7-7--7-7-7--7-7-7--7-7-10-10-10-10--10-10-5-5-5-5--5-5---------------| 
db|--7-7-7-7--7-7-7--7-7-7--7-7-10-10-10-10--10-10-5-5-5-5--5-5---------------| 
Ab|--5-5-5-5--5-5-5--5-5-5--5-5-8--8--8--8---8--8--3-3-3-3--3-3---------------| 
Db|---------------------------------------------------------------------------| 

Eb|----------------------------------| 
Bb|----------------------------------| 
Gb|----------------------------------| 
db|-5-5-5-5-5-5-5-5-5----------------| 
Ab|-5-5-5-5-5-5-5-5-5----------------| 
Db|-5-5-5-5-5-5-5-5-5----------------| 

Refrain 

Eb|---------------------------------------------------------------------------| 
Bb|---------------------------------------------------------------------------| 
Gb|--7-7-7-7-7--10-10-10-10-10--5-5-5-5-5-------------------------------------| 
db|--7-7-7-7-7--10-10-10-10-10--5-5-5-5-5--5-5-5-5-5--------------------------| 
Ab|--5-5-5-5-5--8--8--8--8--8---3-3-3-3-3--5-5-5-5-5--------------------------| 
Db|----------------------------------------5-5-5-5-5--------------------------| 

Eb|---------------------------------------------------------------------------| 
Bb|---------------------------------------------------------------------------| 
Gb|--7-7-7-7-7--10-10-10-10-10--5--5-5--5-5-5-5-------------------------------| 
db|--7-7-7-7-7--10-10-10-10-10--5--5-5--5-5-5-5-------------------------------| 
Ab|--5-5-5-5-5--8--8--8--8--8---3--3-3--3-3-3-5-------------------------------| 
Db|---------------------------------------------------------------------------| 

Fill In 

Eb|----------------------------------| 
Bb|----------------------------------| Repeat 
Gb|----------------------------------| 2x 
db|-------3------3-------------------| 
Ab|-------3------3-------------------| 
Db|--0-0--3--0-0-3--0-0-6-5-0-3-5----| 

Eb|----------------------------------| 
Bb|----------------------------------| 
Gb|----------------------------------| 
db|------3---5---6-7-----------------| 
Ab|------3---5---6-7-----------------| 
Db|--0-0-3-0-5-0-6-7-----------------| 

Verse 

Eb|---------------------------------------------------------------------------| 
Bb|---------------------------------------------------------------------------| 
Gb|--7-7-x-7--7-x-7--7-x-7--7-7-10-10-x--10--10-10-5-5-x-5--5-5---------------| 
db|--7-7-x-7--7-x-7--7-x-7--7-7-10-10-x--10--10-10-5-5-x-5--5-5---------------| 
Ab|--5-5-x-5--5-x-5--5-x-5--5-5-8--8--x--8---8--8--3-3-x-3--3-3---------------| 
Db|---------------------------------------------------------------------------| 

Eb|---------------------------------------------------------------------------| 
Bb|---------------------------------------------------------------------------| 
Gb|--7-7-x-7--7-x-7--7-x-7--7-7-10-10-x--10--10-10-5--------------------------| 
db|--7-7-x-7--7-x-7--7-x-7--7-7-10-10-x--10--10-10-5--------------------------| 
Ab|--5-5-x-5--5-x-5--5-x-5--5-5-8--8--x--8---8--8--3--------------------------| 
Db|---------------------------------------------------------------------------| 

Eb|---------------------------------------------------------------------------| 
Bb|---------------------------------------------------------------------------| 
Gb|--7-7-7-7--7-7-7--7-7-7--7-7-10-10-10-10--10-10-5-5-5-5--5-5---------------| 
db|--7-7-7-7--7-7-7--7-7-7--7-7-10-10-10-10--10-10-5-5-5-5--5-5---------------| 
Ab|--5-5-5-5--5-5-5--5-5-5--5-5-8--8--8--8---8--8--3-3-3-3--3-3---------------| 
Db|---------------------------------------------------------------------------| 

Eb|---------------------------------------------------------------------------| 
Bb|---------------------------------------------------------------------------| 
Gb|--7-7-7-7--7-7-7--7-7-7--7-7-10-10-10-10--10-10-5-5-5-5--5-5---------------| 
db|--7-7-7-7--7-7-7--7-7-7--7-7-10-10-10-10--10-10-5-5-5-5--5-5---------------| 
Ab|--5-5-5-5--5-5-5--5-5-5--5-5-8--8--8--8---8--8--3-3-3-3--3-3---------------| 
Db|---------------------------------------------------------------------------| 

Eb|----------------------------------| 
Bb|----------------------------------| 
Gb|----------------------------------| 
db|-5-5-5-5-5-5-5-5-5----------------| 
Ab|-5-5-5-5-5-5-5-5-5----------------| 
Db|-5-5-5-5-5-5-5-5-5----------------| 

Refrain 

Eb|---------------------------------------------------------------------------| 
Bb|---------------------------------------------------------------------------| 
Gb|--7-7-7-7-7--10-10-10-10-10--5-5-5-5-5-------------------------------------| 
db|--7-7-7-7-7--10-10-10-10-10--5-5-5-5-5--5-5-5-5-5--------------------------| 
Ab|--5-5-5-5-5--8--8--8--8--8---3-3-3-3-3--5-5-5-5-5--------------------------| 
Db|----------------------------------------5-5-5-5-5--------------------------| 

Eb|---------------------------------------------------------------------------| 
Bb|---------------------------------------------------------------------------| 
Gb|--7-7-7-7-7--10-10-10-10-10--5-5-5-5-5-------------------------------------| 
db|--7-7-7-7-7--10-10-10-10-10--5-5-5-5-5--5-5-5-5-5--------------------------| 
Ab|--5-5-5-5-5--8--8--8--8--8---3-3-3-3-3--5-5-5-5-5--------------------------| 
Db|----------------------------------------5-5-5-5-5--------------------------| 

Eb|---------------------------------------------------------------------------| 
Bb|---------------------------------------------------------------------------| 
Gb|--7-7-7-7-7--10-10-10-10-10--5-5-5-5-5-------------------------------------| 
db|--7-7-7-7-7--10-10-10-10-10--5-5-5-5-5--5-5-5-5-5--------------------------| 
Ab|--5-5-5-5-5--8--8--8--8--8---3-3-3-3-3--5-5-5-5-5--------------------------| 
Db|----------------------------------------5-5-5-5-5--------------------------| 

Eb|---------------------------------------------------------------------------| 
Bb|---------------------------------------------------------------------------| 
Gb|--7-7-7-7-7--10-10-10-10-10--5--5-5--5-5-5-5-------------------------------| 
db|--7-7-7-7-7--10-10-10-10-10--5--5-5--5-5-5-5-------------------------------| 
Ab|--5-5-5-5-5--8--8--8--8--8---3--3-3--3-3-3-5-------------------------------| 
Db|---------------------------------------------------------------------------| 

Fill In 

Eb|-------------------------------------------------| 
Bb|-------------------------------------------------| Repeat 
Gb|---------------------------------------5---------| 4x 
db|---------3-----------------------3-----5----6----| 
Ab|---------3-----------------------3-----3----6----| 
Db|-0-0-0-0-3--0-3-5-6-5-3--0-0-0-0-3---0----0-6----| 

Refrain 

Eb|---------------------------------------------------------------------------| 
Bb|---------------------------------------------------------------------------| 
Gb|--7-7-7-7-7--10-10-10-10-10--5-5-5-5-5-------------------------------------| 
db|--7-7-7-7-7--10-10-10-10-10--5-5-5-5-5--5-5-5-5-5--------------------------| 
Ab|--5-5-5-5-5--8--8--8--8--8---3-3-3-3-3--5-5-5-5-5--------------------------| 
Db|----------------------------------------5-5-5-5-5--------------------------| 

Eb|---------------------------------------------------------------------------| 
Bb|---------------------------------------------------------------------------| 
Gb|--7-7-7-7-7--10-10-10-10-10--5-5-5-5-5-------------------------------------| 
db|--7-7-7-7-7--10-10-10-10-10--5-5-5-5-5--5-5-5-5-5--------------------------| 
Ab|--5-5-5-5-5--8--8--8--8--8---3-3-3-3-3--5-5-5-5-5--------------------------| 
Db|----------------------------------------5-5-5-5-5--------------------------| 

Eb|---------------------------------------------------------------------------| 
Bb|---------------------------------------------------------------------------| 
Gb|--7-7-7-7-7--10-10-10-10-10--5-5-5-5-5-------------------------------------| 
db|--7-7-7-7-7--10-10-10-10-10--5-5-5-5-5--5-5-5-5-5--------------------------| 
Ab|--5-5-5-5-5--8--8--8--8--8---3-3-3-3-3--5-5-5-5-5--------------------------| 
Db|----------------------------------------5-5-5-5-5--------------------------| 

Eb|---------------------------------------------------------------------------| 
Bb|---------------------------------------------------------------------------| 
Gb|--7-7-7-7-7--10-10-10-10-10--5--5-5--5-5-5-5-------------------------------| 
db|--7-7-7-7-7--10-10-10-10-10--5--5-5--5-5-5-5-------------------------------| 
Ab|--5-5-5-5-5--8--8--8--8--8---3--3-3--3-3-3-5-------------------------------| 
Db|---------------------------------------------------------------------------| 

Eb|----------------------------------| 
Bb|----------------------------------| Repeat 
Gb|----------------------------------| 2x 
db|-------3------3-------------------| 
Ab|-------3------3-------------------| 
Db|--0-0--3--0-0-3--0-0-6-5-0-3-5----| 

Eb|----------------------------------| 
Bb|----------------------------------| 
Gb|----------------------------------| 
db|------3---5---6-7---0-------------| 
Ab|------3---5---6-7---0-------------| 
Db|--0-0-3-0-5-0-6-7---0-------------| 


************************************ 

| /   slide up 
| \   slide down 
| h   hammer-on 
| p   pull-off 
| ~   vibrato 
| +   harmonic 
| x   Mute note 
| b   Bend 
| pb  Pre-bend 
| br  Bend release 
| pbr Pre-bend release 
| brb Bend release bend 

************************************ 
		  

auto scroll beats size up size down change color hide chords drawings
tab show chords e-chords YouTube Clip e-chords hide all tabs e-chords go to top tab

share