Speedy Ortiz

Mkvi

Speedy Ortiz

tabs

by  GUSTSILVA

save to print version add songbook text version e-mail correct tuner
chordsukulelecavacokeyboardtabbassdrumsharmonicaflute Guitar Pro
close

there isn't a video lesson for this song

chords

Mkvi

Key:  B More
Mkvi Key F#F#
Mkvi Key GG
Mkvi Key G#G#
Mkvi Key AA(one step down)
Mkvi Key A#A#(half step down)
Mkvi Key BB(original key)
Mkvi Key CC(half step up)
Mkvi Key C#C#(one step up)
Mkvi Key DD
Mkvi Key D#D#
Mkvi Key EE
Mkvi Key FF
	  		

Tuning: Standard 

Intro/Verse: 

e|---------------------------------------------------------------------------| 
B|---------------------------------------------------------------------------| 
G|---------------------------------------------------------------------------| 
D|--------1-----------2--------2--4--5---------------------------------------| 
A|-----0-----0-----2-----2--4--------------0--1--2---------------------------| 
E|--2-----------0-----------------------3------------------------------------| 

Chorus: 

    B  E  Dbm  G 
e|--2-----4----3-------------------------------------------------------------| 
B|--4-----5----3-------------------------------------------------------------| 
G|--4--1--6----4-------------------------------------------------------------| 
D|--4--2--6----5-------------------------------------------------------------| 
A|--2--2--4----5-------------------------------------------------------------| 
E|--2-----4----3-------------------------------------------------------------| 

Interlude: 

e|---------------------------------------------------------------------------| 
B|---------------------------------------------------------------------------| 
G|---------------------------------------------------------------------------| 
D|--------1-----------2-----------------------2---------66--55--66-----------| 
A|-----0-----0-----2-----2-----3--4--6-----2-----2--44-----------------------| 
E|--2-----------0-----------4-----------0------------------------------------| 

e|---------------------------------------------------------------------------| 
B|---------------------------------------------------------------------------| 
G|---------------------------------------------------------------------------| 
D|--------2---------66--55--66--------2--------------------------------------| 
A|-----2-----2--44-----------------2-----2-----------------------------------| 
E|--0---------------------------0--------------------------------------------| 

Sadie goes back to verse 
Matt/Devin kind of solos over verse, I cant figure that part out 

Chorus: 

    B  E  Dbm  G 
e|--2-----4----3-------------------------------------------------------------| 
B|--4-----5----3-------------------------------------------------------------| 
G|--4--1--6----4-------------------------------------------------------------| 
D|--4--2--6----5-------------------------------------------------------------| 
A|--2--2--4----5-------------------------------------------------------------| 
E|--2-----4----3-------------------------------------------------------------| 

Interlude: Song gets increasingly distorted 

e|---------------------------------------------------------------------------| 
B|---------------------------------------------------------------------------| 
G|---------------------------------------------------------------------------| 
D|--------1-----------2-----------------------2---------66--55--66-----------| 
A|-----0-----0-----2-----2-----3--4--6-----2-----2--44-----------------------| 
E|--2-----------0-----------4-----------0------------------------------------| 

e|---------------------------------------------------------------------------| 
B|---------------------------------------------------------------------------| 
G|---------------------------------------------------------------------------| 
D|--------2---------66--55--66--------2--------------------------------------| 
A|-----2-----2--44-----------------2-----2-----------------------------------| 
E|--0---------------------------0--------------------------------------------| 

e|---------------------------------------------------------------------------| 
B|---------------------------------------------------------------------------| 
G|---------------------------------------------------------------------------| 
D|--------1-----------2-----------------------2---------66--55--66-----------| 
A|-----0-----0-----2-----2-----3--4--6-----2-----2--44-----------------------| 
E|--2-----------0-----------4-----------0------------------------------------| 

e|---------------------------------------------------------------------------| 
B|---------------------------------------------------------------------------| 
G|---------------------------------------------------------------------------| 
D|--------2---------66--55--66--------2--------------------------------------| 
A|-----2-----2--44-----------------2-----2-----------------------------------| 
E|--0---------------------------0--------------------------------------------| 

Chorus: 

    B  E  Dbm  G 
e|--2-----4----3-------------------------------------------------------------| 
B|--4-----5----3-------------------------------------------------------------| 
G|--4--1--6----4-------------------------------------------------------------| 
D|--4--2--6----5-------------------------------------------------------------| 
A|--2--2--4----5-------------------------------------------------------------| 
E|--2-----4----3-------------------------------------------------------------| 

This part I really have no clue, I think they just play the main riff in a higher octave 
If someone wants to post their version of it, I would really appreciate it, maybe it is something 
like this though? 

e|---------------------------------------------------------------------------| 
B|---------------------------------------------------------------------------| 
G|--4--3--4--3--6-----4--3---------------------------------------------------| 
D|-----------------7---------------------------------------------------------| 
A|---------------------------------------------------------------------------| 
E|---------------------------------------------------------------------------| 

And that is basically the whole song, the other 3 minutes is just increasing chaos and distortion based 
around those chords and riffs 
		  

Full key step upFull key step up
Half key step upHalf key step up
Half key step downHalf key step down
Full key step downFull key step down
hide glossary

See also:

tabs Ira! - Poço de Sensibilidade (Solo - Acustico Mtv) tabs Deep Purple - Smoke On The Water tabs Deep Purple - Smoke on the water (intro) tabs Ira! - Eu Quero Sempre Mais (Com Pitty, intro) tabs Deep Purple - Smoke on the Water (ver. 2) tabs Deep Purple - Knocking At Your Back Door
e-chords

Other versions:

tabs Speedy Ortiz - Mkvi
auto scroll beats size up size down change color hide chords drawings
tab show chords e-chords YouTube Clip e-chords hide all tabs e-chords go to top tab

share