Spank Thru

The Plant

Spank Thru

tabs

by  IZZY MEXX

save to print version add songbook text version e-mail correct tuner
chordsukulelecavacokeyboardtabbassdrumsharmonicaflute Guitar Pro
close

there isn't a video lesson for this song

chords

The Plant

	  		Artist: Spank Thru 
Title: The Plant 
 
 
   Are discussing daily,	    about sense of life 
E|------------------------------------------------------------------- 
B|------------------------------------------------------------------- 
G|------------------------------------------------------------------- 
D|-3-3-3-3-3-3-3-3------------------2-2-2-2-2-2-2-2-2-2-2-2-2-2-2-2-- 
A|-3-3-3-3-3-3-3-3-3-3-3-3-3-3-3-3--0-0-0-0-0-0-0-0-0-0-0-0-0-0-0-0-- 
E|-1-1-1-1-1-1-1-1--------------------------------------------------- 
 
   in mine is no more iron,	    and youth is drown.	      (alles gedämpft!!) 
 
E|------------------------------------------------------------------- 
B|------------------------------------------------------------------- 
G|------------------------------------------------------------------- 
D|-3-3-3-3-3-3-3-3------------------2-2-2-2-2-2-2-2-2-2-2-2-2-2-2-2-- 
A|-3-3-3-3-3-3-3-3-3-3-3-3-3-3-3-3--0-0-0-0-0-0-0-0-0-0-0-0-0-0-0-0-- 
E|-1-1-1-1-1-1-1-1--------------------------------------------------- 
 
 
Chorus: 
   Am					   C 
What's in life realy count,    grows in grandma's garden 
	                      
E|-0------------3---------------0-------------------3--------------------------- 
B|-1------------1---------------1-------------------1--------------------------- 
G|-2------------2---------------0-------------------0--------------------------- 
D|-2------------2---------------2-------------------2--------------------------- 
A|-0------------0---------------3-------------------3--------------------------- 
E|------------------------------------------------------------------------------ 
 
   F						G 
  Still look, if you see,     the plant, the plant 
 
E|-1------------------3-------------3-----------3----------------------------- 
B|-1------------------1-------------0-----------1----------------------------- 
G|-2------------------2-------------0-----------0----------------------------- 
D|-3------------------3-------------0-----------0----------------------------- 
A|----------------------------------2-----------2----------------------------- 
E|----------------------------------3-----------3----------------------------- 
 

		  

Full key step upFull key step up
Half key step upHalf key step up
Half key step downHalf key step down
Full key step downFull key step down
hide glossary

See also:

tabs Alice in Chains - Again tabs Nirvana - Heart-shaped Box tabs Nirvana - All Apologies Acoustic tabs Pearl Jam - Better Man tabs Pearl Jam - Alone tabs Nirvana - Smells like teen Spirit - Solo
e-chords

Other versions:

tabs Spank Thru - The Plant
auto scroll beats size up size down change color hide chords drawings
tab show chords e-chords YouTube Clip e-chords hide all tabs e-chords go to top tab

share