Sozo

Quem … Este?

Sozo

tabs

by  CARLLUZ

save to print version add songbook text version e-mail correct tuner
chordsukulelecavacokeyboardtabbassdrumsharmonicaflute Guitar Pro
close

there isn't a video lesson for this song

chords

Quem … Este?

	  		
 
       A    C#m   F#m    A  B 
E|----------------------0--2--| 
B|----5-----9-----2-----0--2--| 
G|----4-----9-----2-----2--4--| 
D|----------------------2--4--| 
A|----------------------0--2--| 
E|----5-----9-----2-----------| 
 

Guitarra 2: - no final da introduÁ„o 
 
E|--12~--12-14-16-14---| 
B|--14~----------------| 
 

Quem ť este 
O Rei da Glůria? 
Abram-se os portais eternos 
Quem ť este 
O Rei da Glůria? 
Abram-se os portais 

Abram-se os portais 
Eternos portais 
Pra que entre o Rei da Glůria 

Guitarra 2 na primeira estrofe: 

 
      A                     C#m 
E|---16------16------------19-----19-------------------------| 
B|--17----17----17------16------16---16----------------------| 
G|-----------------------------------------------------------| 
D|-----------------------------------------------------------| 
A|-----------------------------------------------------------| 
E|-----------------------------------------------------------| 
 

 
     F#m                      A          B 
E|--16-------16----16-----------19------------16-----16------| 
B|-17-----17----17----------16--------16-17-19--17-19--19----| 
G|-----------------------------------------------------------| 
D|-----------------------------------------------------------| 
A|-----------------------------------------------------------| 
E|-----------------------------------------------------------| 
 

 
      A                     C#m 
E|---16------16------------19-----19-------------------------| 
B|--17----17----17------16------16---16----------------------| 
G|-----------------------------------------------------------| 
D|-----------------------------------------------------------| 
A|-----------------------------------------------------------| 
E|-----------------------------------------------------------| 
 

 
     F#m                      A          B 
E|--16-------16----16-----------19------------16---16-17-16--| 
B|-17-----17----17----------16--------16-17-19--17-----------| 
G|-----------------------------------------------------------| 
D|-----------------------------------------------------------| 
A|-----------------------------------------------------------| 
E|-----------------------------------------------------------| 
 

Riff 1(1:25) - 4x 

 
E|---------------------------| 
B|-----------------14/16-16--| 
G|---14/16-16/18-------------|  4x 
D|---------------------------| 
A|---------------------------| 
E|---------------------------| 
 

 
E|--16-----------------------------------16----------16------------| 
B|----17---------------------16--17--19------16--17------19--------| 
G|-----------------------------------------------------------------| 
D|-----------------------------------------------------------------| 
A|-----------------------------------------------------------------| 
E|-----------------------------------------------------------------| 
 

Riff 2(2:21) - 4x 

 
E|-/19-------------------------| 
B|-----17-17-16-16-12-14-------| 
G|-----------------------13----|  
D|-----------------------------| 
A|-----------------------------| 
E|-----------------------------| 
 

 
E|--------12-14-14b14p12---------------12-14-14-14p12---------| 
B|--12-14-----------------14~~~---12-14-----------------14----| 
G|-----------------------------------------------------------| 
D|-----------------------------------------------------------| 
A|-----------------------------------------------------------| 
E|-----------------------------------------------------------| 
 

 
E|------------------| 
B|--12-14~--10/12~--| 
G|--------13--------| 
D|------------------| 
A|------------------| 
E|------------------| 
 

Ponte: A  C#m  B  C#m  A  (C#m)  

Base: A  B 

Solo: 

 
E|--------------------------------------------------------------------------------------| 
B|--12/14-14-14\9~------12/14-14-14/7---------12/14-14-14\9~\7/12~----12/14-14-14/7-----| 
G|-------------------------------------8-------------------------------------------8~---| 
D|--------------------------------------------------------------------------------------| 
A|--------------------------------------------------------------------------------------| 
E|--------------------------------------------------------------------------------------| 
 

 
E|--------------------------------------------------------------------------------------| 
B|----9-9----12-12---12b-10-----------------------14/17--17-----9~~--5~~----------------| 
G|--9~-----9~--------------11--8-9~-8-9~-8-9~8-8-------16--16---------------------------| 
D|--------------------------------------------------------------------------------------| 
A|--------------------------------------------------------------------------------------| 
E|--------------------------------------------------------------------------------------| 
		  

Full key step upFull key step up
Half key step upHalf key step up
Half key step downHalf key step down
Full key step downFull key step down
hide glossary

See also:

tabs Detonautas - Quando o Sol Se For tabs Legi„o Urbana - Tempo Perdido(solo inicial ver.) tabs Capital Inicial - Natasha tabs Legi„o Urbana - O Teatro Dos Vampiros tabs Paralamas do Sucesso - Lanterna dos Afogados tabs Legi„o Urbana - Ainda … Cedo
e-chords

Other versions:

tabs Sozo - Quem … Este?
auto scroll beats size up size down change color hide chords drawings
tab show chords e-chords YouTube Clip e-chords hide all tabs e-chords go to top tab

share