Sonic Youth

Unwind

Sonic Youth

tabs Expert expert

save to print version add songbook text version e-mail correct tuner
chordsukulelecavacokeyboardtabbassdrumsharmonicaflute Guitar Pro
close

there isn't a video lesson for this song

chords

Unwind

Year: 1995 - Album: Washing Machine

	  		 
Tuning: Standard 
Tab for: Mørphine 
IF YOU POST THIS ANYWHERE, PLEASE, GIVE ME CREDIT! 
 
I did it in standard and it sounds OK; if you know the correct 
tuning or have any correction, e-mail me, please... 
 
 
"Lay down your lucky hand, upon her heart..." 
 
e-------------------------------------------------------| 
B-------------------------------------------------------| 
G-------------------------------------------------------|  
D-------------------------------------------------------| 
A-14-14-14-14-14--17--9-9-9-9-9--12-12--10-10-10-10-10--| 
E-------------------------------------------------------| 
 
 
"Morning becomes a kite,  tangled up in stars..." 
 
e-------------------------------------------------------| 
B-------------------------------------------------------| 
G-------------------------------------------------------|  
D-------------------------------------------------------| 
A-14-14-14-14-14----17----9-9-9-9-9--12--10-10-10-10-10-| 
E-------------------------------------------------------| 
 
 
"Laugh in the midday light...             ...and leave it behind." 
 
e---------------------------------------|---------------------------------------| 
B---------------------------------------|---------------------------------------| 
G---------------------------------------|---------------------------------------| 
D--13-13-13-13-13-13-12-12-12-12-12-12--|---------------------------------------| 
A---------------------------------------|---------9-9-9-9-9-9-10-10-10-10-10-10-| 
E---------------------------------------|---------------------------------------| 
 
 
Hang down your lucky head, a sign to time 
Morning becomes the sun, for the dandy line 
Sooner than the midday light, we leave behind 
Love is out into de sundry light, you sing, unwind... 
 
 
{{{ INSTRUMENTAL PART }}} 
 
e----17--15-----------------------------/15--17--15----------------------------| 
B----------15---15--13-----------------------------15---15--13-----------------| 
G-----------------------14--12--12-12--------------------------14---12--14--11-|  
D-------------------------------12-12------------------------------------------| 
A-------------------------------10-10------------------------------------------| 
E------------------------------------------------------------------------------| 
 
e---------------------------------------------------------| 
B---------------------------------------------------------| 
G-----------14--12--11-----------12--14--11---------------|  
D--10-12-9--------------10-12--9-------------10--12---9---| 
A---------------------------------------------------------| 
E---------------------------------------------------------| 
 
e-------------------------------------------------------| 
B-------------------------------------------------------| 
G-------------9--11-12--14--12--11----------------------|  
D--10--12-13------------------------10--12--9-----------| 
A-------------------------------------------------------| 
E-------------------------------------------------------| 
 
e---------------------------------------------------------------| 
B---------------------------------------------------------------| 
G---12-14----12--14--11-12--11-12--12-14--12-14--11-12--11-12---|  
D-10------10--------9------9-----10-----10------9------9--------| 
A---------------------------------------------------------------| 
E---------------------------------------------------------------| 
 
e-------------------------------------------------------| 
B-------------------------------------------------------| 
G-----12-14-12----12-14-12---11-12-11---11-12-11--------|  
D--10----------10----------9----------9-----------------| 
A-------------------------------------------------------| 
E-------------------------------------------------------| 
 
e-------------------------------------------------------------| 
B-------------------------------------------------------------| 
G---14-15--17-15--14-15--17-15--14-15--17-15--14-15--17-15-~--|  
D-------------------------------------------------------------| 
A-------------------------------------------------------------| 
E-------------------------------------------------------------| 
 
 
{NOISY PART} 
 
                                =(GUITAR 1)= 
e--------------------------------------------------------------------------------| 
B--------------------------------------------------------------------------------| 
G------------14-15--17-15----14-15--17-15------14-15--17-15--14-15--17-15--------|  
D--------------------------------------------------------------------------------| 
A--------------------------------------------------------------------------------| 
E--------------------------------------------------------------------------------| 
 
                                =(GUITAR 2)= 
 
e--------------------------------------------------------------------------------| 
B--------------------------------------------------------------------------------| 
G--------------------------------------------------------------------------------|  
D-------------7-7-7-7-7-7-7---7-7-7-7-7-7-7---5-5-5-5-5-5-5-5--5-5-5-5-5-5-5-5---| 
A-------------7-7-7-7-7-7-7---7-7-7-7-7-7-7---5-5-5-5-5-5-5-5--5-5-5-5-5-5-5-5---| 
E-------------5-5-5-5-5-5-5---5-5-5-5-5-5-5---3-3-3-3-3-3-3-3--3-3-3-3-3-3-3-3---| 
 
 
{CALM PART} 
 
e-------------------------------------------------------| 
B-------------------------------------------------------| 
G---14-12-11----------12-14-11--------------------------|  
D-------------10-12-9----------10-12-9------------------| (2 TIMES) 
A-------------------------------------------------------| 
E-------------------------------------------------------| 
 
e-------------------------------------------------------| 
B-------------------------------------------------------| 
G-------------9-11-12---14-12-11------------------------|  
D---10-12-13---------------------10-12-9----------------| 
A-------------------------------------------------------| 
E-------------------------------------------------------| 
 
_______________________________________________________ 
Contribuição: Mario Roberto F. Júnior([email protected]) 

		  

See also:

tabs Gary Moore - Parisienne Walkways tabs Lifehouse - Blind tabs Cream - Sunshine Of Your Love Accurate tabs Iron Butterfly - In-A-Gadda-De-Vida tabs Gary Moore - Still Got the Blues (ver. 2) tabs Hoobastank - The Reason (ver. 2)
e-chords

Other versions:

tabs Sonic Youth - Unwind tabs Green River - Unwind tabs Avenged Sevenfold - Unwind The Chainsaw
auto scroll beats size up size down change color hide chords drawings
tab show chords e-chords YouTube Clip e-chords hide all tabs e-chords go to top tab

share