Sonic Youth

Tuff Gnarl

Sonic Youth

tabs Advanced advanced

save to print version add songbook text version e-mail correct tuner
chordsukulelecavacokeyboardtabbassdrumsharmonicaflute Guitar Pro
close

there isn't a video lesson for this song

chords

Tuff Gnarl

Year: 1987 - Album: Sister

	  		 
Tuning: EAD#GA#A# (!!!!!) 
 
how to tune: 
 
tune the D string up to the sixth fret of the A string 
tune the B string down to the third fret of the G string 
the A#'s are in unison 
 
bear with me..... i don't think this is right cause  
it's a very hard song to figure out. 
four guitars at the same time! 
(i'm only trying to do one..thurston's) 
i don't even think it's complete but it's a start. 
THIS SONG IS ONE OF MY FAVORITES! WELL, AND IT'S VERY HARD TO PLAY! 
I'VE HEARD ABOUT 4 GUITARS AT SAME TIME IN LAST 50 SECONDS OF THIS SONG: IT IS CORRECT? 
 
 
repeat about twice: 
A#|-------------- 0-0-3-3-3---0--------------------| 
A#|-------2-2-2-2-0-0-3-3-3-2-0--------------------| 
G |-2-2--------------------------------------------| 
D#|-----2------------------------------------------| 
A |------------------------------------------------| 
E |------------------------------------------------| 
 
 
"He's runin' on a tuff knarl in his head...." 
 
(Lee Ranaldo is doing some sort of harmonics in the  
background i think) 
 
A#|-222222222222222222-------3333333-2-0----------| 
A#|-222222222222222222-------3333333-2-0----------| 
G |-222222222222222222--------------------2-------| 
D#|-222222222222222222----------------------------| 
A |-000000000000000000----------------------------| 
E |-----------------------------------------------| 
 
    
A#|--------222222-0----------333333333-2-00-0----| 
A#|--------222222-0----------333333333-2-00-0----| 
G |--2-2------------2-h3-3-----------------------| 
D#|------2---------------------------------------| 
A |----------------------------------------------| 
E |----------------------------------------------| 
 
 
then basically just make SONIC noise 
michael's music links said something about a certain way  
to do the noise. I should ev' kept the message 
 
i think this is the bassline that goes through the midrange  
sonic noise........... 
 
 
|--------------------------------| 
|--------------------------------| 
|--------------------------------| 
|--555-666-888-555-666-888-----| 
 
 
Tuff Gnarl 
 
He's running on a tuff gnarl in his head he's got a fatal 
erection home in bed 
He's really smart and he's really fast he's got a hard tit 
killer fuck in his past 
Saints perserve us in hot young stuff the saving grace is a sonic pig pile 
Amazing grazing strange and raging flies are flaring thru yr brains 
Spastic flailing literally raising my roof 
An adrenal mental man-tool box explodes in music creates utopia 
You gnarl out on my nerves you weird and crush the cranking raunch 
Flesh dirt forcefield lost and found let's burn your broken heart 
Set our sights on sights not yet set let's scorch your wavo wig 
Let's poke your eyes out... 
 
 
_______________________________________________________ 
Contribuição: Mario Roberto F. Júnior([email protected]) 

		  

See also:

tabs Gary Moore - Parisienne Walkways tabs Lifehouse - Blind tabs Cream - Sunshine Of Your Love Accurate tabs Iron Butterfly - In-A-Gadda-De-Vida tabs Gary Moore - Still Got the Blues (ver. 2) tabs Hoobastank - The Reason (ver. 2)
e-chords

Other versions:

tabs Sonic Youth - Tuff Gnarl
auto scroll beats size up size down change color hide chords drawings
tab show chords e-chords YouTube Clip e-chords hide all tabs e-chords go to top tab

share