Sonic Youth

Sweet Shine

Sonic Youth

tabs

by  BOMBAXXX

save to print version add songbook text version e-mail correct tuner
chordsukulelecavacokeyboardtabbassdrumsharmonicaflute Guitar Pro
close

there isn't a video lesson for this song

chords

Sweet Shine

	  		
Intro  

0:00 - 0:18 and 2:07 - 2:25 

(Chord) 

B|---6---| 
E|---6---| 
F#|------| 
F#|------| 
F#|------| 
F#|------| 

0:18 - 0:36 and 2:25 - 2:44 

B|------0-0------------0---------| 
E|------0-----0----0-------0-----| 
F#|-----0---0----0---0---0---0---| X4 
F#|-----3------------------------| 
F#|-----3------------------------| 
F#|---3-3------------------------| 

0:36 - 0:54 and 2:44 - 3:02 

(hold the bend) 

B|-------------------------------------------| 
E|-------------------------------------------| 
F#|---7|||-8-10||-10b----7|||-8-10||---------| X2 
F#|---7|||-8-10||-10b----7|||-8-10||---------| 
F#|---7|||-8-10||--------7|||-8-10||-3||-0---| 
F#|---7|||---------------7|||--------3||-0---| 

0:54 - 1:12 and 3:02 - 3:20 

B|---12---------------------12---------------------------------------------------------------------------| 
E|------12---------------------12------------------------------------------------------------------------| 
F#|--------14b--12||||/14||-------14b--12||||\10||-------------------------------------------------------| 
F#|------------------------------------------------------------------------------------------------------| 
F#|------------------------------------------------------------------------------------------------------| 
F#|-------------------------------------------------12||-13-14-15--15||-17||--17|-15||-12-14||-10-12||---| 

1:12 - 1:31 and 3:20 - 3:39 

(Hold the bend) 

B|---5-----------| 
E|------7b-------| 
F#|----------7---| X4 
F#|----------7---| 
F#|--------------| 
F#|--------------| 

1:31 - 1:49 and 3:39 - 3:56 

(Chord) 

B|--------| 
E|--------| 
F#|-------| 
F#|-------| 
F#|---3---| 
F#|---3---| 

1:49 - 2:07 and 3:56 - 5:16 

(after this the song repeats from the beginning with no changes except that the ending is played longer)  

B|-------5---2---0--------0---------| 
E|--------------------0-------0-----| 
F#|--------0---0----0---0---0---0---| X4 
F#|---------------------------------| 
F#|---------------------------------| 
F#|--3-3----------------------------| 


************************************************* 
|= Last note played 
/= Slide up 
\= Slide down 
b= Bend 
************************************************* 
		  

See also:

tabs Chevelle - Send The Pain Below tabs Finch - Letters to you tabs Slash Snakepit - Godfather Theme tabs James Blunt - Wisemen tabs MxPx - Werecking Hotel Rooms tabs Misfits - Saturday Night
e-chords

Other versions:

tabs Sonic Youth - Sweet Shine
auto scroll beats size up size down change color hide chords drawings
tab show chords e-chords YouTube Clip e-chords hide all tabs e-chords go to top tab

share