Sonic Youth

Sugar Kane

Sonic Youth

tabs Easy easy

save to print version add songbook text version e-mail correct tuner
chordsukulelecavacokeyboardtabbassdrumsharmonicaflute Guitar Pro
close

there isn't a video lesson for this song

chords

Sugar Kane

Year: 1992 - Album: Dirty (Deluxe Edition)

	  		 
	Essa música é tocada com afinação standard. Infelizmente eu não tenho a letra 
	mas é simples tocá-la.  
	Após a introdução, na primeira parte toca-se o Main riff e na segunda parte qud muda 
	 é só tocar G5 e C5 
 
 
Intro: 
  Riff1 4x 
E|------------------------------------------------------------------------------------| 
B|------------------------------------------------------------------------------------| 
G|-15-15-15-15-15-15-15-15-14-14-14-14-14-14-14-14-14-12-12-12-12-10-10-10-10-7-7-7-7-| 
D|------------------------------------------------------------------------------------| 
 
  G5  X vezes 
G|-0-0--| 
D|-5-5--| 
G|-5-5--| 
E|-3-3--| 
   
  Riff2  4x 
E|--------------------------------------------------------------| 
B|--------------------------------------------------------------| 
G|--------------------------------------------------------------| 
D|--15-15-15-14-14-14-13-13-12-12-12-13-13-13-14-14-14-15-15-15-| 
 
 
 
	Main Riff 
E|--------------------------| 
B|--------------------------| 
G|------7/5---5---5---5-----| 
D|--5-5-7/5-5---5---5----5--| 
A|--5-5-5/3--------------5--| 
E|--3-3------------------3--| 
 
 
   G5  C5 
E|----|---| 
B|----|---| 
G|----|-5-| 
D|--5-|-5-| 
A|--5-|-3-| 
E|--3-|---| 
 
 
 
	Cifrado por Jean R.C. de Almeida	 
	Para outros detalhes como os solos ou correções escreva-me [email protected] 
	Outras tab's, Pink Floyd, Sonic Youth, The Breeders... 
	Jean R. C. de Almeida. 
 
 
 
_______________________________________________________ 
Contribuição: ([email protected]) 

		  

Full key step upFull key step up
Half key step upHalf key step up
Half key step downHalf key step down
Full key step downFull key step down
hide glossary

See also:

tabs Gary Moore - Parisienne Walkways tabs Lifehouse - Blind tabs Cream - Sunshine Of Your Love Accurate tabs Iron Butterfly - In-A-Gadda-De-Vida tabs Gary Moore - Still Got the Blues (ver. 2) tabs Hoobastank - The Reason (ver. 2)
e-chords

Other versions:

tabs Sonic Youth - Sugar Kane
auto scroll beats size up size down change color hide chords drawings
tab show chords e-chords YouTube Clip e-chords hide all tabs e-chords go to top tab

share