Sonic Youth

Disappearer

Sonic Youth

tabs

save to print version add songbook text version e-mail correct tuner
chordsukulelecavacokeyboardtabbassdrumsharmonicaflute Guitar Pro
close

there isn't a video lesson for this song

chords

Disappearer

Year: 1990 - Album: Goo

	  		IF YOU POST THIS ANYWHERE, PLEASE, GIVE ME CREDIT 
 
INTRO: Bend the second 10 up to 11, then back down... 
 
 
d---------------------------------------------------- 
G---------------------------------------------------- 
B---------------------------------------------------- 
E----8--10--8---8--10--8--7---7--7/14---------------- 
C---------------------------------------------------- 
C---------------------------------------------------- 
 
After the INTRO, I think they play this chord with a few mutes: 
 
d-------0--------------------------------------------- 
G-------0--------------------------------------------- 
B-------8--------------------------------------------- 
E-------8--------------------------------------------- 
C----------------------------------------------------- 
C----------------------------------------------------- 
 
Verse & Pre-Chorus: (Just chords; no strumming shown...) 
 
d---0----0-------|-------0------0------------------------- 
G---0----0-------|-------0------0------------------------- 
B---8----6-------|-------4------3------------------------- 
E---8----6-------|-------4------3------------------------- 
C---0----0-------|-------0------0------------------------- 
C---0----0-------|-------0------0------------------------- 
 
CHORUS: 
 
d---0---0----0---0------0---0---0---0------------------------ 
G---0---0----0---0------0---0---0---0------------------------ 
B---0---0----3---0------2---2---5---2------------------------ 
E---0---0----3---0------2---2---5---2----------------- 
C---0---0----0---0------0---0---0---0------------------------ 
C---0---0----0---0------0---0---0---0------------------------ 
 
 
_______________________________________________________ 
Contribuição: Mario Roberto F. Júnior([email protected]) 

		  

See also:

tabs Gary Moore - Parisienne Walkways tabs Lifehouse - Blind tabs Cream - Sunshine Of Your Love Accurate tabs Iron Butterfly - In-A-Gadda-De-Vida tabs Gary Moore - Still Got the Blues (ver. 2) tabs Hoobastank - The Reason (ver. 2)
e-chords

Other versions:

tabs Sonic Youth - Disappearer
auto scroll beats size up size down change color hide chords drawings
tab show chords e-chords YouTube Clip e-chords hide all tabs e-chords go to top tab

share