Something For Kate

Toothbrush

Something For Kate

tabs

save to print version add songbook text version e-mail correct tuner
chordsukulelecavacokeyboardtabbassdrumsharmonicaflute Guitar Pro
close

there isn't a video lesson for this song

chords

Toothbrush

	  		by something for kate 
tabbed by stephen dubsky ([email protected]) 
 
          Intro 
E---||----x---x---x---x---x---x----||----------------------------------- 
B---||----x---x---x---x---x---x----||----------------------------------- 
G---||*---x---x---x---x---x---x---*||----------------------------------- 
D---||*---x---x---x---x---x---x---*||----------------------------------- 
A---||----x---x---x---x---x---x----||----------------------------------- 
E---||----x---x---x---x---x---x----||----------------------------------- 
 
 
    Verse 1 
E----------------------------------------------------||----------------- 
B----------------------------------------------------||----------------- 
G---9---9---9---9---4---4---4---4---4---/---9---9---*||----------------- 
D---9---9---9---9---4---4---4---4---4---/---9---9---*||----------------- 
A---7---7---7---7---2---2---2---3---2---/---0---0----||----------------- 
E---0---0---0---0------------------------------------||----------------- 
 
 
    pre chorus 
E----------------------------------------------------------------------- 
B----------------------------------------------------------------------- 
G---5---5---5---5---2---2---5---5---5---5---2---2---5---5---5---5------- 
D---5---5---5---5---2---2---5---5---5---5---2---2---5---5---5---5------- 
A---3---3---3---3---0---0---3---3---3---3---0---0---3---3---3---3------- 
E-----------0-----------------------0-----------------------0----------- 
 
 
 
E-----------------------------------||---------------------------------- 
B-----------------------------------||---------------------------------- 
G---2---2---5---5---5---5---5---5---||---------------------------------- 
D---2---2---5---5---5---5---5---5---||---------------------------------- 
A---0---0---3---3---3---3---3---3---||---------------------------------- 
E-----------0---0---0---0---0---0---||---------------------------------- 
 
 
    chorus                        3x 
E---------------------------------||------------------------------------ 
B---------------------------------||------------------------------------ 
G---7---7---7---6---6---6---9----*||------------------------------------ 
D---7---7---7---6---6---6---10---*||------------------------------------ 
A---5---5---5---4---4---4---7-----||------------------------------------ 
E---------------------------8-----||------------------------------------ 
 
 
 
E---------------------------------------------------||------------------ 
B---------------------------------------------------||------------------ 
G---7---7---7---6---6---6---5---5---5---5---5---5---||------------------ 
D---7---7---7---6---6---6---5---5---5---5---5---5---||------------------ 
A---5---5---5---4---4---4---3---3---3---3---3---3---||------------------ 
E---------------------------0---0---0---0---0---0---||------------------ 
 
 
    verse 2 
E--------------------------------------------||------------------------- 
B--------------------------------------------||------------------------- 
G---9---9---9---9---------------------------*||------------------------- 
D---9---9---9---9---------------------------*||------------------------- 
A---7---7---7---7---2---2---2---3---2---0----||------------------------- 
E---0---0---0---0----------------------------||------------------------- 
 
 
    bridge 
E----------------------------------------------------------------------- 
B----------------------------------------------------------------------- 
G----------------------------------------------------------------------- 
D---/---14---3---/---14---3---/---14---3---/---14---3---/---14---3------ 
A---/---14---3---/---14---3---/---14---3---/---14---3---/---14---3------ 
E---/---12---1---/---12---1---/---12---1---/---12---1---/---12---1------ 
 
 
 
E----------------------------|----------------------||------------------ 
B----------------------------|----------------------||------------------ 
G----------------------------|---------------------*||------------------ 
D---/---14---3---5---7---2---|-------------0-------*||------------------ 
A---/---14---3---5---7---2---|---------3------------||------------------ 
E---/---12---1---3---5---0---|---0h1-----------0----||------------------ 
 
 
 

		  

See also:

tabs Pete Murray - beautiful tabs Powderfinger - These Days tabs John Butler Trio - Attitude tabs John Butler Trio - Peaches & Cream tabs Russell Morris - On The Wings Of An Eagle tabs Pete Murray - Bail Me Out
e-chords

Other versions:

tabs Something For Kate - Toothbrush
auto scroll beats size up size down change color hide chords drawings
tab show chords e-chords YouTube Clip e-chords hide all tabs e-chords go to top tab

share