Something For Kate

Three Dimensions

Something For Kate

tabs

save to print version add songbook text version e-mail correct tuner
chordsukulelecavacokeyboardtabbassdrumsharmonicaflute Guitar Pro
close

there isn't a video lesson for this song

chords

Three Dimensions

	  		fixed a bit By Brett Cook [email protected] 
 
 
still doesn't have some of the second guitar overlays, but these are the  
main bits 
 
 
Tuning: Standard 
 
 
Intro and Verse (Muted Chords) 
 
 
"Your Not The First.." 
 
 
e  --------------------------------------------- 
b  --6--5--1--3--5----------------------------- 
g  --x--x--x--x--x----------------------------- 
d  --7--5--2--3--5----------------------------- 
a  --5--3--0--1--3----------------------------- 
E  --------------------------------------------- 
 
 
e  --------------------------------------------- 
b  --6--5--10--8---5--5--6--8------------------- 
g  --x--x--x---x---x--x--x--x------------------- 
d  --7--5--10--8---7--7--7--7------------------- 
a  --5--3--------------------------------------- 
E  --------------------------------------------- 
 
 
Chorus 
 
 
"Cause I am Bored With.."      chord leading back into verse 
 
 
e  ---3----3---1 (0)------|----------------------------- 
b  ---3----3---1----------|----3------------------------ 
g  ---0----0---2----------|----3------------------------ 
d  ---0----2---3----------|----3------------------------ 
a  ---x----2---3----------|----1------------------------ 
E  ---3----0---1-(x)------|----------------------------- 
 
 
 
 
2nd guitar 
 
 
e  ---------------------------------------------------------------- 
b  -----8-10-8-10-8-10/12--8-10-8-10-8-/13\12--8-10-8-10-8-10/12--- 
g  ---------------------------------------------------------------- 
d  ---------------------------------------------------------------- 
a  ---------------------------------------------------------------- 
E  ---------------------------------------------------------------- 
 
 
e  ---------------------------------------------------------10----- 
b  -----8-10-8-10-8-10/12--8-10-8-10-8-/13\12--8-10-8-10-8--------- 
g  ---------------------------------------------------------------- 
d  ---------------------------------------------------------------- 
a  ---------------------------------------------------------------- 
E  ---------------------------------------------------------------- 
 
 
Bridge 
 
 
e  ------------0----1---- 
b  ------------5----1---- 
g  ---2----5---4----2---- 
d  ---2----5---5----3---- 
a  ---0----0---0----3---- 
e  -----------------1---- 
 
 
 
quiet last chorus beginning 
 
 
e  ---------------------------------------7------------- 
b  ------------10-h-12-----------8---10------10--------- 
g  ------------------------------7-----------10--------- 
d  --------12----------12--------9-----------10--------- 
a  ---10-------------------10----7-----------8---------- 
E  -----------------------------------------------------  

		  

See also:

tabs John Butler Trio - Attitude tabs The Dissociatives - Horror With Eyeballs tabs Wolfmother - Woman tabs Pete Murray - Tonic tabs Virgin Black - Our Wings Are Burning tabs Russell Morris - On The Wings Of An Eagle
e-chords

Other versions:

tabs Something For Kate - Three Dimensions
auto scroll beats size up size down change color hide chords drawings
tab show chords e-chords YouTube Clip e-chords hide all tabs e-chords go to top tab

share