Something For Kate

Telescope

Something For Kate

tabs

save to print version add songbook text version e-mail correct tuner
chordsukulelecavacokeyboardtabbassdrumsharmonicaflute Guitar Pro
close

there isn't a video lesson for this song

chords

Telescope

	  		Tabbed by Ben Cas 
[email protected] 
 
Timing can be worked out from listening to the CD 
 
Verse (can't place attatchment...) 
E---------------------------------------------- 
B---------------------------------------------- 
G---------------------------------------------- 
D-8---5---7---3----------------------------------- 
A-8---5---7---3----------------------------------- 
E-6---3---5---1------------------------------------ 
 
Next Bit (thinks hes not as clever....) 
E-3---------------1---------------0---------------- 
B-3---------------1---------------3---------------- 
G-4---------------2---------------2p0h2p0h2p0 etc-- 
D-5-------4---5---3-------2---3---0---------------- 
A-5---5-----------3---3-----------0---------------- 
E-3---------------1---------------0---------------- 
 
Chorus (for his father to come home...) 
E---------1---0---1------------------------------ 
B-3-------1---2---3------------------------------- 
G-2---4---2---2---3------------------------------ 
D-0---4---3---2---3----------------------------- 
A-0---2---3---0---1------------------------------- 
E---------1---0------------------------------ 
 
Second Chorus (heavier) 
E---------------------------------------------- 
B---------------------------------------------- 
G---------------------------------------------- 
D-12---9---3------7---8------------------------ 
A---------------------------------------------- 
E-10---7---1------5---6------------------------ 
 
Middle Bit 
E---------------------------------------------- 
B---------------------------------------------- 
G---------------------------------------------- 
D-------------10---------------------------------- 
A-----8---7---------------------------------------- 
E-6---------------------------------------------- 
 
E---------------|--5----------------------------- 
B-11---10---6---|--3----------------------------- 
G-14---12---7---|--2----------------------------- 
D---------------|--2----------------------------- 
A---------------|--0----------------------------- 
E---------------|--0----------------------------- 
 
Weird Distorted Bit 
E-------------------------------------------------- 
B-------------------------------------------------- 
G-7---7-------------------------------------------- 
D-7---7----slide up to something i'm not sure what- 
A-5---5-------------------------------------------- 
E-------------------------------------------------- 
 
Repeat Second Chorus again and then switch to: 
 
E---------------------------------------------- 
B----------9---10------------------------------ 
G----------10--10---8---9---9--------------------- 
D-12---9------------7---7---8--------------------- 
A----------8---8--------------------------------- 
E-10---7------------5---5---6-------------------- 
 
End on Middle Bit 
 
Comments and Corrections to 
Ben Cas 
[email protected] 
 
 

		  

See also:

tabs Pete Murray - beautiful tabs Powderfinger - These Days tabs John Butler Trio - Attitude tabs John Butler Trio - Peaches & Cream tabs Russell Morris - On The Wings Of An Eagle tabs Pete Murray - Bail Me Out
e-chords

Other versions:

tabs Something For Kate - Telescope tabs Yellowcard - Telescope
auto scroll beats size up size down change color hide chords drawings
tab show chords e-chords YouTube Clip e-chords hide all tabs e-chords go to top tab

share