Something For Kate

Strategy

Something For Kate

tabs

save to print version add songbook text version e-mail correct tuner
chordsukulelecavacokeyboardtabbassdrumsharmonicaflute Guitar Pro
close

there isn't a video lesson for this song

chords

Strategy

	  		strategy 
By something for kate 
tabbed by stephen dubsky 
 
chords only written once, riffs written in order with no labels 
 
 
 
E---||----2---------------2---0----||---2---2---4---0---|--------------- 
B---||----2---------------2---0----||---3---2---4---0---|--------------- 
G---||*---2---------------2---1---*||---4---2---4---2---|--------------- 
D---||*---4---2---h---4---4---2---*||---4---4---6---2---|--------------- 
A---||----4---2---h---4---4---2----||---2---4---6---0---|--------------- 
E---||----2---------------2---0----||-------2---4-------|--------------- 
 
 
 
E---2---2-------4---2---0---|---2---2---4---0---|----------------------- 
B---3---2-------5---5---5---|---3---2---4---0---|----------------------- 
G---4---2-------4---4---4---|---4---2---4---2---|----------------------- 
D---4---4---2---------------|---4---4---6---2---|----------------------- 
A---2---4---2---------------|---2---4---6---0---|----------------------- 
E-------2---0---------------|-------2---4-------|----------------------- 
 
 
 
E---4---2---4---9-----|| 
B---5---5---5---7-----|| 
G---4---4---4---6----*|| 
D---0---0---0---0----*|| 
A---------------------|| 
E---------------------|| 
 
Chorus 
E---2---0---0---0h2p0---0---0---2---2---2---3---3----||--- 
B---3---3---3---3-------3---3---3---3---3---0---0----||---- 
G---2---2---2---2-------2---2---4---4---4---0---0---*||---- 
D---0---0---0---0-------2---2---5---5---5---0---0---*||--- 
A-----------------------0---0---2---2---2---2---2----||---- 
E-------------------------------0---0---0---3---3----||---- 
 
 
E---2-------2---||---||----2---2-------2---2-------2---2---0----||------ 
B---2-------2---||---||----2---2-------2---2-------2---2---0----||------ 
G---2-------2---||---||*---2---2-------2---2-------2---2---1---*||------ 
D---4---2---4---||---||*---4---2---h---4---2---h---4---4---2---*||------ 
A---4---2---4---||---||----4---2---h---4---2---h---4---4---2----||------ 
E---2-------2---||---||----2---2-------2---2-------2---2---0----||------ 
 
 
 
Chorus 
E---2---0---0---0h2p0---0---0---2---2---2---3---3----||--- 
B---3---3---3---3-------3---3---3---3---3---0---0----||---- 
G---2---2---2---2-------2---2---4---4---4---0---0---*||---- 
D---0---0---0---0-------2---2---5---5---5---0---0---*||--- 
A-----------------------0---0---2---2---2---2---2----||---- 
E-------------------------------0---0---0---3---3----||---- 
 
 

		  

See also:

tabs Pete Murray - beautiful tabs Powderfinger - These Days tabs John Butler Trio - Attitude tabs John Butler Trio - Peaches & Cream tabs Russell Morris - On The Wings Of An Eagle tabs Pete Murray - Bail Me Out
e-chords

Other versions:

tabs Something For Kate - Strategy
auto scroll beats size up size down change color hide chords drawings
tab show chords e-chords YouTube Clip e-chords hide all tabs e-chords go to top tab

share