Solitude Aeturnus

Together And Wither

Solitude Aeturnus

tabs

by  CARLLUZ

save to print version add songbook text version e-mail correct tuner
chordsukulelecavacokeyboardtabbassdrumsharmonicaflute Guitar Pro
close

there isn't a video lesson for this song

chords

Together And Wither

	  		

Intro I (0:00) 
============== 

Riff 1a (Guitar 1) 

 1 e + a 2 e + a 3 e + a 4 e + a 5 e + a 1 e + a 2 e + a 3 e + a 4 e + a 5 e + a 
|---------------------------------------|---------------------------------------| 
|---------------------------------------|---------------------------------------| 
|---------------------------------------|---------------------------------------| x1 
|---------------------------------------|---------------------------------------| 
|7-----------7---9---10--10------7------|7-----------7---9---10--10------9------| 
|0-----------0--------------------------|0-----------0--------------------------| 




Riff 1b (Guitar 1) 

 1 e + a 2 e + a 3 e + a 4 e + a 5 e + a 1 e + a 2 e + a 3 e + a 4 e + a 
|---------------------------------------|-------------------------------| 
|---------------------------------------|-------------------------------| 
|---------------------------------------|-------------------------------| x1 
|--------------------------------9------|-------------------------------| 
|7-----------7---9---10--10-------------|10------9---10--9-------7------| 
|0-----------0--------------------------|-------------------------------| 




Intro II (0:11) 
=============== 

Riff 1a (Guitar 1) 

 1 e + a 2 e + a 3 e + a 4 e + a 5 e + a 1 e + a 2 e + a 3 e + a 4 e + a 5 e + a 
|---------------------------------------|---------------------------------------| 
|---------------------------------------|---------------------------------------| 
|---------------------------------------|---------------------------------------| x1 
|---------------------------------------|---------------------------------------| 
|7-----------7---9---10--10------7------|7-----------7---9---10--10------9------| 
|0-----------0--------------------------|0-----------0--------------------------| 


Riff 1a (Guitar 2) 

 1 e + a 2 e + a 3 e + a 4 e + a 5 e + a 1 e + a 2 e + a 3 e + a 4 e + a 5 e + a 
|---------------------------------------|---------------------------------------| 
|----------------2---3---3-------0------|----------------2---3---3-------2------| 
|---------------------------------------|---------------------------------------| x1 
|2-----------2--------------------------|2-----------2--------------------------| 
|2-----------2--------------------------|2-----------2--------------------------| 
|0-----------0--------------------------|0-----------0--------------------------| 




Riff 1b (Guitar 1) 

 1 e + a 2 e + a 3 e + a 4 e + a 5 e + a 1 e + a 2 e + a 3 e + a 4 e + a 
|---------------------------------------|-------------------------------| 
|---------------------------------------|-------------------------------| 
|---------------------------------------|-------------------------------| x1 
|--------------------------------9------|-------------------------------| 
|7-----------7---9---10--10-------------|10------9---10--9-------7------| 
|0-----------0--------------------------|-------------------------------| 


Riff 1b (Guitar 2) 

 1 e + a 2 e + a 3 e + a 4 e + a 5 e + a 1 e + a 2 e + a 3 e + a 4 e + a 
|--------------------------------2------|-------------------------------| 
|----------------2---3---3--------------|3-------2---3---2-------0------| 
|---------------------------------------|-------------------------------| x1 
|2-----------2--------------------------|-------------------------------| 
|2-----------2--------------------------|-------------------------------| 
|0-----------0--------------------------|-------------------------------| 




Riff 1a x 1 




Riff 1c (Guitar 1) 

 1 e + a 2 e + a 3 e + a 4 e + a 5 e + a 1 e + a 2 e + a 3 e + a 4 e + a 5 e + a 
|---------------------------------------|---------------------------------------| 
|---------------------------------------|---------------------------------------| 
|---------------------------------------|---------------------------------------| x1 
|--------------------------------9------|--------------------------------9\\\\\\| 
|7-----------7---9---10--10-------------|10------9---10--9-------7-------7\\\\\\| 
|0-----------0--------------------------|---------------------------------------| 


Riff 1c (Guitar 2) 

 1 e + a 2 e + a 3 e + a 4 e + a 5 e + a 1 e + a 2 e + a 3 e + a 4 e + a 5 e + a 
|--------------------------------2------|---------------------------------------| 
|----------------2---3---3--------------|3-------2---3---2-------0--------------| 
|---------------------------------------|---------------------------------------| x1 
|2-----------2--------------------------|--------------------------------9\\\\\\| 
|2-----------2--------------------------|--------------------------------7\\\\\\| 
|0-----------0--------------------------|---------------------------------------| 




Pre-Verse (0:33) 
================ 

Riff 2a (Guitar 1 & 2) 

 1 e + a 2 e + a 3 e + a 4 e + a 1 e + a 2 e + a 3 e + a 4 e + a  
|-------------------------------|-------------------------------| 
|-------------------------------|-------------------------------| 
|-------------------------------|-------------------------------| x1 
|-------------------------------|-------------------------------| 
|-------------------------------|----------------5--------------| 
|0-------0---0---0-------0---0--|0-------0---0---3--------------| 
 .       .   .   .       .   .   .       .   . 



Riff 2b (Guitar 1 & 2) 

 1 e + a 2 e + a 3 e + a 4 e + a 1 e + a 2 e + a 3 e + a 4 e + a 1 e + a 2 e + a 
|-------------------------------|-------------------------------|---------------| 
|-------------------------------|-------------------------------|---------------| 
|-------------------------------|-------------------------------|---------------| x1 
|-------------------------------|-------------------------------|---------------| 
|-------------------------------|----------------5-------7------|3--------------| 
|0-------0---0---0-------0---0--|0-------0---0---3-------5------|1--------------| 
 .       .   .   .       .   .   .       .   . 



Riff 2a x 1 




Riff 2c (Guitar 1 & 2) 

 1 e + a 2 e + a 3 e + a 4 e + a 1 e + a 2 e + a 3 e + a 4 e + a 1 e + a 2 e + a 
|-------------------------------|-------------------------------|---------------| 
|-------------------------------|-------------------------------|---------------| 
|-------------------------------|-------------------------------|---------------| x1 
|-------------------------------|-------------------------------|---------------| 
|-------------------------------|----------------2--------------|1--------------| 
|0-------0---0---0-------0---0--|0-------0---0-----------3------|---------------| 
 .       .   .   .       .   .   .       .   . 



Verse I (0:53) 
============== 

Riff 2a x 1 

Riff 2b x 1 

Riff 2a x 1 

Riff 2b x 1 




Pre-Chorus I (1:13) 
=================== 

Riff 3 (Guitar 1) 

 1 e + a 2 e + a 3 e + a 4 e + a 1 e + a 2 e + a 3 e + a 4 e + a 
|-------------------------------|-------------------------------| 
|-------------------------------|-------------------------------| 
|---------------/8v-------------|---------------/8-------7v-----| x4 
|-------------------------------|-------------------------------| 
|2------------------------------|2------------------------------| 
|0------------------------------|0------------------------------| 


Riff 3 (Guitar 2) 

 1 e + a 2 e + a 3 e + a 4 e + a 1 e + a 2 e + a 3 e + a 4 e + a 
|-------------------------------|-------------------------------| 
|-------------------------------|-------------------------------| 
|-------------------------------|-------------------------------| x4 
|-------------------------------|-------------------------------| 
|2--------------/6v-------------|2--------------/6-------5v-----| 
|0------------------------------|0------------------------------| 




Verse II (1:31) 
=============== 

Riff 2a x 1 

Riff 2b x 1 

Riff 2a x 1 

Riff 2c x 1 




Pre-Chorus II (1:51) 
==================== 

Riff 4a (Guitar 1 & 2) 

 1 e + a 2 e + a 3 e + a 4 e + a 1 e + a 2 e + a 3 e + a 4 e + a  
|-------------------------------|-------------------------------| 
|-------------------------------|-------------------------------| 
|-------------------------------|-------------------------------| x1 
|-------------------------------|-------------------------------| 
|5------------------------------|5---------------5-------5------| 
|3------------------------------|3---------------3-------3------| 




Riff 3 x 2 




Riff 4b (Guitar 1 & 2) 

 1 e + a 2 e + a 3 e + a 4 e + a 1 e + a 2 e + a 3 e + a 4 e + a  
|-------------------------------|-------------------------------| 
|-------------------------------|-------------------------------| 
|-------------------------------|-------------------------------| x1 
|-------------------------------|-------------------------------| 
|5------------------------------|5---------------5-------7------| 
|3------------------------------|3---------------3-------5------| 




Riff 4c (Guitar 1 & 2) 

 1 e + a 2 e + a 3 e + a 4 e + a 1 e + a 2 e + a 3 e + a 4 e + a  
|-------------------------------|-------------------------------| 
|-------------------------------|-------------------------------| 
|-------------------------------|-------------------------------| x1 
|-------------------------------|11----------------------11\\\\\| 
|4------------------------------|9-----------------------9-\\\\\| 
|2------------------------------|-------------------------------| 




Chorus I (2:09) 
=============== 

Riff 1a x 1 

Riff 1b x 1 

Riff 1a x 1 

Riff 1b x 1 

Riff 1a x 1 




Riff 1d (Guitar 1) 

 1 e + a 2 e + a 3 e + a 4 e + a 5 e + a 1 e + a 2 e + a 3 e + a 
|---------------------------------------|-----------------------| 
|---------------------------------------|-----------------------| 
|---------------------------------------|-----------------------| x1 
|--------------------------------9------|-----------------------| 
|7-----------7---9---10--10-------------|10------9---10--9------| 
|0-----------0--------------------------|-----------------------| 


Riff 1d (Guitar 2) 

 1 e + a 2 e + a 3 e + a 4 e + a 5 e + a 1 e + a 2 e + a 3 e + a 
|--------------------------------2------|-----------------------| 
|----------------2---3---3--------------|3-------2---3---2------| 
|---------------------------------------|-----------------------| x1 
|2-----------2--------------------------|-----------------------| 
|2-----------2--------------------------|-----------------------| 
|0-----------0--------------------------|-----------------------| 




Solo (2:40) 
=========== 

Riff 5a (Guitar 2) 

 1 e + a 2 e + a 3 e + a 4 e + a 1 e + a 2 e + a 3 e + a 4 e + a 
|-------------------------------|-------------------------------| 
|-------------------------------|-------------------------------| 
|-------------------------------|-------------------------------| x4 
|2-------0----------------------|-------------------------------| 
|----------------1-------0------|--------2-------2--------------| 
|-------------------------------|--------0-------0--------------| 




Riff 5b (Guitar 2) 

 1 e + a 2 e + a 3 e + a 4 e + a 1 e + a 2 e + a 3 e + a 4 e + a 
|-------------------------------|-------------------------------| 
|-------------------------------|-------------------------------| 
|-------------------------------|-------------------------------| x2 
|-------------------------------|-------------------------------| 
|2-------1-------0--------------|--------2-------2--------------| 
|------------------------3------|--------0-------0--------------| 




Riff 5a x 2 

Riff 5b x 3 




Riff 5c (Guitar 2) 

 1 e + a 2 e + a 3 e + a 4 e + a 1 e + a 2 e + a 3 e + a 4 e + a 
|-------------------------------|-------------------------------| 
|-------------------------------|-------------------------------|    Note: Gradually slow down the tempo 
|-------------------------------|-------------------------------| x1 during this riff. Also, make sure to 
|-------------------------------|-------------------------------|    slowly bend the last note on the 3rd 
|2-------1-------0--------------|-------------------------------|    fret up a half-step throughout the 
|------------------------3------|-------------------------------|    last measure. 




Verse III (3:23) 
================ 

Riff 2a x 1 

Riff 2b x 1 

Riff 2a x 1 

Riff 2b x 1 

Riff 2a x 1 

Riff 2b x 1 

Riff 2a x 1 

Riff 2c x 1 




Pre-Chorus III (4:03) 
===================== 

Riff 4a x 1 

Riff 3 x 2 

Riff 4b x 1 

Riff 4c x 1 




Chorus II (4:21) 
================ 

Riff 1a x 1 

Riff 1b x 1 

Riff 1a x 1 

Riff 1b x 1 

Riff 1a x 1 

Riff 1b x 1 

Riff 1a x 1 

Riff 1b x 1 

Riff 1a x 1 

Riff 1b x 1 

Riff 1a x 1 (Starting here, the song begins to fade into silence.) 

Riff 1b x 1 

Riff 1a x 1  

Riff 1b x 1 


After that, the song has completely faded into silence. 



And that's it! 


************************************ 

| /   slide up 
| \   slide down 
| h   hammer-on 
| p   pull-off 
| v   vibrato 
| +   harmonic 
| ?   mute note 
| b   bend 
| pb  pre-bend 
| br  bend release 
| pbr pre-bend release 
| brb bend release bend 

************************************ 
		  

See also:

tabs Deep Purple - Deep Purple - Smoke On The Water tabs Ira! - Vitrine Viva tabs Ira! - Eu Quero Sempre Mais (Com Pitty, intro) tabs Deep Purple - Smoke On The Water (Easy Intro) tabs Deep Purple - Money Talks tabs Deep Purple - Mistreated
e-chords

Other versions:

tabs Solitude Aeturnus - Together And Wither
auto scroll beats size up size down change color hide chords drawings
tab show chords e-chords YouTube Clip e-chords hide all tabs e-chords go to top tab

share