Smith Westerns

Weekend (intro)

Smith Westerns

tabs

by  RENEJUNIOR

save to print version add songbook text version e-mail correct tuner
chordsukulelecavacokeyboardtabbassdrumsharmonicaflute Guitar Pro
close

there isn't a video lesson for this song

chords

Weekend (intro)

	  		

e|--------------------------------------------------------------------------| 
B|--------------------------------------------------------------------------| 
G|------------9-11b13-11b13-11b13r11p9------------9--11b13-11b13-11b13r11p9-| 
D|----7-7/11---------------------------11---7/11----------------------------| 
A|--------------------------------------------------------------------------| 
E|--------------------------------------------------------------------------| 

e|--------------------------------------------------------------------------| 
B|----12b14-12b14r12p10----10--12b14-12b14r12p10-----10--12b14-b14r12-10----| 
G|------------------------11------------------------11----------------------| 
D|--------------------------------------------------------------------------| 
A|--------------------------------------------------------------------------| 
E|--------------------------------------------------------------------------| 

e|--------------------------------------------------------------------------| 
B|----------10--------------------------------------------------------------| 
G|--11-9-11-----------------------------------------------------------------| 
D|--------------------------------------------------------------------------| 
A|--------------------------------------------------------------------------| 
E|--------------------------------------------------------------------------| 

 
		  

See also:

tabs Red Hot Chili Peppers - Under The Bridge (ver. 2) tabs Good Charlotte - Hold On tabs Ben Harper - Diamonds on inside tabs Good Charlotte - Predictable tabs Paramore - Misery Business tabs Red Hot Chili Peppers - Scar Tissue (ver. 4)
e-chords

Other versions:

tabs Smith Westerns - Weekend (intro) tabs Royal Republic - Weekend Man tabs Iron Maiden - Weekend Warrior tabs A Change Of Pace - Weekend Warriors
auto scroll beats size up size down change color hide chords drawings
tab show chords e-chords YouTube Clip e-chords hide all tabs e-chords go to top tab

share with facebook