Slipknot

home > Slipknot

Vermillion Pt. 2 Tab

Slipknot

Difficulty: ExpertExpert

by Fou%5FLu

tuner correct add songbook print version text version save to e-mail
chordsukulelecavacokeyboardtabbassdrumsharmonicsflute Guitar Pro
chords

Vermillion Pt. 2

  		Essa musica eu tirei assim 
acho que é bem perto disso o jeito certo 
bom 
divirtam-se 
 
Abraço especial pro pessoal da minha banda Majesty 
 
 
Afinação: Eb  (Eb Ab Db Gb Bb Eb) 
 
 Introdução: 
  Am     C 
|---------------------------------------------------| 
|-1-1--1-1--1-1--1-1---1-1---1-1-1--1--1-1-1-1------| 
|-2-2--4-4--2-2--2-2---2-2---0-0-0--0--0-0-0-0------| 
|-2-2--2-2--3-3--2-2h3-3-3---2-2-2--2--2-2-2-2------| 2x 
|-0-0--0-0--0-0--0-0---0-0---3-3-3--3/-2-2-2-2------| 
|----------------------------0-0-0--0--0-0-0-0------| 
 
 Verso: (= Introdução) 
 She seemed dressed in all of me Strechted across my shame 
 All the torment and the pain Leaked through and covered me 
 I do anything to have her to myself just to have her for myself 
 Now I don't know what to do 
      B       C 
 I don't know what to do  When she make me sad 
 
 
 She is everthing to me The unrequited dream 
 A song that no one sings The Unattainable 
 She's a myth that I have to believe in All I need to make it real is one more Reason 
 I don't know what to do 
      B     C 
 I don't know what to do  When she makes me sad 
 
 
  G#    G        Cm G# 
|-------------------------------------------| 
|---4----------------3---4----------4-------| 
|-----5---5----4---4-------5---5------5---5-| 
|-6-----6---5----5-----5-----5----6-----6---| 4x 
|-6---------5----------3----------6---------| 
|-4---------3---------------------4---------| 
 But I won't let this build up inside of me 
 
 
 
 
|--3--3-5-6-----1--5---3-2--3--| 
|--4--4-6-8--4--3--6---4-3--4--| 
|--5--5-7-8--5--3--7---5-4--5--| 
|--5--5-7-8--6--3--7---5-4--5--| 1x 
|--3--3-5-6--6--1--5---3-2--3--| 
|------------4-----------------| 
 
 
Ponte: 
 
|-4-4-4--3-3-3--3-3-3--3-3-3---| 
|-4-4-4--3-3-3--4-4-4--3-3-3---| 
|-5-5-5--4-4-4--5-5-5--4-4-4---| 
|-6-6-6--5-5-5--5-5-5--5-5-5---| 
|-6-6-6--5-5-5--3-3-3--5-5-5---| 
|-4-4-4--3-3-3---------3-3-3---| 
 I catch in my throat, Choke, Torn into pieces 
 I won't - No, I don't want to be this 
 
 
  G#    G        Cm G# 
|-------------------------------------------| 
|---4----------------3---4----------4-------| 
|-----5---5----4---4-------5---5------5---5-| 
|-6-----6---5----5-----5-----5----6-----6---| 4x 
|-6---------5----------3----------6---------| 
|-4---------3---------------------4---------| 
 But I won't let this build up inside of me 
 
 
 Outro: 
  Am     C 
|---------------------------------------------------| 
|-1-1--1-1--1-1--1-1---1-1---1-1-1--1--1-1-1-1------| 
|-2-2--4-4--2-2--2-2---2-2---0-0-0--0--0-0-0-0------| 
|-2-2--2-2--3-3--2-2h3-3-3---2-2-2--2--2-2-2-2------| 
|-0-0--0-0--0-0--0-0---0-0---3-3-3--3/-2-2-2-2------| 
|----------------------------0-0-0--0--0-0-0-0------| 
 Won't let this build up inside of me 2x 
  
| She isn't real (won't let this build up inside of me)      | 
| I can't make her real (won't let this build up inside of me)| 2x 
 
 
|----------13-12--| 
|-10-12-----------| 
|-----------------| 
|-----------------| 
|-----------------| 
|-----------------| 

	  

Full key step upFull key step up
Half key step upHalf key step up
Half key step downHalf key step down
Full key step downFull key step down
Search Paypal
auto scroll beats size up size down change color hide chords drawings
tab show chords e-chords YouTube Clip e-chords hide all tabs e-chords go to top tab